A Great Big World - Say Something Chords & Tabs

 

Say Something Chords & Tabs

A Great Big World Chords & Tabs

Version: 4 Type: Tab 0 ratings
1 star 2 stars 3 stars 4 stars 5 stars
comments

Say Something Tab

finger-style/lead guitar version with a good ol' fashion standard tuning 

Say Something:

Capo 2

Play slowly

intro:

e|-------------------------------------------------------------------------|
B|-1-----1-----1-----1---1-------1-----------1-----------1-----------1-----|
G|-------------------------------------------------------------------------|
D|-------------------------------------------------------------------------|
A|-------------------------0-----------------------3-----------------------|
E|-------------------------------------1-----------------------3-----------|

chorus:

e|-------0---------0-------------------------------|
B|-1-------3-3-3-3---3-1-1-------1-----------1-----|
G|-------------------------------------------------|
D|-------------------------2-----------------------|    2x
A|-0-----------------------3-----------2-----------|
E|-------------1-----------------------3-----------|

e|-------------------------------------------------|
B|-1-------0-1-------------------1-----------1-----|
G|-------2-------------0-----------0---------------|
D|-------------3---3-3---3-h2--------1-------------|    
A|-0-----------------------3-----------h2----------|
E|-------------1-----1-----------------3-----------|
[ Tab from: http://www.guitartabs.cc/tabs/a/a_great_big_world/say_something_tab_ver_4.html ]
e|-------0---------0-------------------------------|
B|-1-------3-3-3-3---3-1-1-------1-----------1-----|
G|-2---2-------2-----------------------------------|
D|-------------------------2-----------------------|    
A|-0-----------------------3-----------2-----------|
E|-------------1-----------------------3-----------|

Verse:

e|-----------------------0-------------------------------------------------|
B|-1-----1-----1---1-1h3---0-------------------0-0-1-----------------------|
G|-------------------------0-----0-----0-----0-------2p0h2-----2---2-2p0---|
D|-----------------------------------------------------------------------3-|    
A|-3-----------------3-----------------------------------------------------|
E|-------------------------0-----------------------1-----1-----------2-----|

e|-------------------------|
B|-------1-----------1-----|
G|-------------------------|
D|-2-----------------------|    
A|-3-----------2-----------|
E|-------------3-----------|

Outro:

e|--------------------------------------------------------------------------|
B|-------1-----------1-----------1-----------1-----------1-----------1-----1|
G|--------------------------------------------------------------------------|
D|-------------------------------------------------------------------------2|
A|-0-----------------------3-----------------------0-----------------------3|
E|-------------1-----------------------3-----------------------1------------|
Comments