A Global Threat - Smoke Up Your Ass Chords & Tabs

 

Smoke Up Your Ass Chords & Tabs

A Global Threat Chords & Tabs

Version: 1 Type: Tab 0 ratings
1 star 2 stars 3 stars 4 stars 5 stars
comments

Smoke Up Your Ass Tab

im not sure if this is played with two guitars or just one. If it is two, then
the only change between guitars is that the main guitar plays the "2nd Verse"
during the last two verses and the rhythm guitar plays the "1st Verse" during all verses.

/ = Slide
. = palm mute
~ = let ring

Intro
E|-----------------------------
B|-----------------------------
G|-----------------999--5--777-
D|-7/99--7--555--7-999--5--777- x2
A|-7/99--7--555--7-777--3--555-
E|-5/77--5--333--5-------------

1st Verse
E|------------------------------
B|------------------------------
G|------------------999--5--777-
D|-7/99--7--555--7--999--5--777- x4
A|-7/99--7--555--7--777--3--555-
E|-5/77--5--333--5--------------

1st Bridge
E|------------------------------
B|------------------------------
G|-3333--5--6666--3333--5-------
D|-3333--5--6666--3333--5-------
A|-1111--3--4444--1111--3--6666-
E|-------------------------4444-
[ Tab from: http://www.guitartabs.cc/tabs/a/a_global_threat/smoke_up_your_ass_tab.html ]
Chorus
E|----------------------|--------------------|
B|----------------------|--------------------|
G|------6666-------5555-|------6666----------|
D|-666--6666--555--5555-|-666--6666--5555555-|
A|-666--4444--555--3333-|-666--4444--5555555-|
E|-444--------333-------|-444--------3333333-|
                                      ......

E|----------------------|------------------------------------
B|----------------------|------------------------------------
G|------6666-------5555-|------6666--------------------------
D|-666--6666--555--5555-|-666--6666--5555555-5555555-55555555
A|-666--4444--555--3333-|-666--4444--5555555-5555555-55555555
E|-444--------333-------|-444--------3333333-3333333-33333333
                                      ......  ......  .......

2nd Verse/2nd Bridge
E|-----------------------------
B|-----------------------------
G|-7--9--7--555--7--1111--9--7-
D|-7--9--7--555--7--1111--9--7-
A|-5--7--5--333--5-- 9 9--7--5-
E|-----------------------------

Outro
E|-------------|    |-----------
B|-------------|    |-----------
G|-3333-5-6666-|    |-3333-5-6~-
D|-3333-5-6666-| x5 |-3333-5-6~-
A|-1111-3-4444-|    |-1111-3-4~-
E|-------------|    |-----------

Oi! for the boston punks and skins
And fuck you.
Comments