A Global Threat - In The Red Chords & Tabs

 

In The Red Chords & Tabs

A Global Threat Chords & Tabs

Version: 1 Type: Tab 0 ratings
1 star 2 stars 3 stars 4 stars 5 stars
comments

In The Red Tab

   
verse:2x
e|-------------------------------------------------------------------------|
B|-------------------------------------------------------------------------|
G|-55----44----55----44----------------------------------------------------|
D|-555544445544555544445544------------------------------------------------|
A|-335544225544335544225544------------------------------------------------|
E|---3322--3322--3322--3322------------------------------------------------|

chorus:
e|------------------------------------------------------------------------|
B|------------------------------------------------------------------------|
G|------------------------------------------------------------------------|
D|-5235235236/7-----------------------------------------------------------|
A|-5235235236/7-----------------------------------------------------------|
E|-3013013014/5-----------------------------------------------------------|

you play this after you played the chorus and the verse and the chorus again.
break:
e|------------------------------------------------------------------------|
B|------------------------------------------------------------------------|
G|-55555555---------------5555555543/4443/4449-9--------------------------|
D|-555555555555555555555555555555543/4443/4449999-------------------------|
A|-333333335555555555555553333333321/2221/2227979-------------------------|
E|---------333333333333333--------------------7-7-------------------------|
[ Tab from: http://www.guitartabs.cc/tabs/a/a_global_threat/in_the_red_tab.html ]
continues from the top part:
e|------------------------------------------------------------------------|
B|------------------------------------------------------------------------|
G|-55555555---------------5555555543/4443/4449-9---9999-999---------------|
D|-555555555555555555555555555555543/4443/4449999--9999-999---------------|
A|-333333335555555555555553333333321/2221/22279797-7777-777---------------|
E|---------333333333333333--------------------7-7-------------------------|

ending verse 1x
e|-------------------------------------------------------------------------|
B|-------------------------------------------------------------------------|
G|-55----44----55----44----------------------------------------------------|
D|-555544445544555544445544------------------------------------------------|
A|-335544225544335544225544------------------------------------------------|
E|---3322--3322--3322--3322------------------------------------------------|

then this part:
e|-------------------------------------------------------------------------|
B|-------------------------------------------------------------------------|
G|-77----66----77----66----77----66----------------------------------------|
D|-777766667766777766667766777766667766------------------------------------|
A|-557766447766557766447766557766447766------------------------------------|
E|---5544--5566--5544--5544--5544--5544------------------------------------|


| /  slide up
| \  slide down
| h  hammer-on
| p  pull-off
| ~  vibrato
| +  harmonic
| x  Mute note

questions? crust_and_anguish_life@yahoo.com

===============================================================================
Comments