A Global Threat - Here We Are Chords & Tabs

 

Here We Are Chords & Tabs

A Global Threat Chords & Tabs

Version: 1 Type: Tab 0 ratings
1 star 2 stars 3 stars 4 stars 5 stars
comments

Here We Are Tab

Band: A Global Threat
Song: Here We Are


tabbed by jam9383@yahoo.com


Verse

e---------------------------------------------------------------------|
B---------------------------------------------------------------------|
G---9--9--9--10--10---------------------------------------------------|
D---9--9--9--10--10--7--7--7--8--8------------------------------------|
A---7--7--7--8---8---7--7--7--8--8------------------------------------|
E--------------------5--5--5--6--6------------------------------------|

Chorus

e---------------------------------------------------------------------|
B---------------------------------------------------------------------|
G---10-10-10-10-10-10-------------9--9--------------------------------|
D---10-10-10-10-10-10---10-10-10--9--9--------------------------------|
A----8--8--8--8--8--8---10-10-10--7--7--------------------------------|
E-----------------------8---8--8--------------------------------------|

Pre-Solo
[ Tab from: http://www.guitartabs.cc/tabs/a/a_global_threat/here_we_are_tab.html ]
e---------------------------------------------------------------------|
B---------------------------------------------------------------------|
G---------------------------------------------------------------------|
D---10--9--8--7-------------------------------------------------------|
A---10--9--8--7-------------------------------------------------------|
E---8---7--6--5-------------------------------------------------------|

Solo

e---------------------------------------------------------------------|
B---17-17-17-15-18-18-18----------------------------------------------|
G------------------------17-17-16-14----------------------------------|
D------------------------------------17-17-15-14----------------------|
A------------------------------------------------14-14-12-11-10-------|
E---------------------------------------------------------------------|

e---------------------------------------------------------------------|
B---------------------------------------------------------------------|
G---------------------------------------------------------------------|
D---------------------------------------------------------------------|
A---------------------------------------------------------------------|
E--12-12-10-8-8-7-5~--------------------------------------------------|

any comments/corrections contact me, please rate
Comments