A Flock Of Seagulls - Space Age Love Song Chords & Tabs

 

Space Age Love Song Chords & Tabs

A Flock Of Seagulls Chords & Tabs

Version: 1 Type: Tab 0 ratings
1 star 2 stars 3 stars 4 stars 5 stars
comments

Space Age Love Song Tab

   
----------------------------------------------------------------------------
			     Space age Love song - Flock of Seagulls
----------------------------------------------------------------------------
Tabbed by:Shawn

Tuning:Standard

Main Progression:

D  A  G  D

Intro

e|-0-0-0------------------------------------------------------------------|
B|-------2-2-2---------(15X)----------------------------------------------|
G|-------------2-2--------------------------------------------------------|
D|------------------------------------------------------------------------|
A|------------------------------------------------------------------------|
E|------------------------------------------------------------------------|

After 2nd Verse

e|-0-0-0--------------12-12-12-------------------14-14-14-----------------|
B|-------2-2-2-----------------14-14-14-------------------15-15-15--------|
G|-------------2-2----------------------14-14----------------------14-14--|
D|------------------------------------------------------------------------|
A|----(4X)--------------------(4X)------------------------(8X)------------|
E|------------------------------------------------------------------------|

After Last Verse

e|-0-0-0-------------12-12-12---------------------------------------------|
B|-------2-2-2----------------14-14-14------------------------------------|
G|-------------2-2---------------------14-14------------------------------|
D|------------------------------------------------------------------------|
A|-----(4X)-------------------(4X)----------------------------------------|
E|------------------------------------------------------------------------|
[ Tab from: http://www.guitartabs.cc/tabs/a/a_flock_of_seagulls/space_age_love_song_tab.html ]
e|-14-14-14-----------------15-15-15-14-14-14-----------------------------|
B|----------15-15-15------------------------------------------------------|
G|-------------------14-14--------------------14-14-----------------------|
D|------------------------------------------------------------------------|
A|---------(3X)-----------------------------------------------------------|
E|------------------------------------------------------------------------|

e|-14-14-14--------------------15-15-15-14-14-14--------------------------|
B|----------15-15-15------------------------------------------------------|
G|-------------------14-14-----------------------14-14-14-----------------|
D|------------------------------------------------------------------------|
A|--------(7X)------------------------------------------------------------|
E|------------------------------------------------------------------------|

e|-14-14-14-----------------------15-15-15-14-14-14-----------------------|
B|----------15-15-15------------------------------------------------------|
G|-------------------14-14--------------------------14-14-14--------------|
D|------------------------------------------------------------------------|
A|---------(3X)-----------------------------------------------------------|
E|------------------------------------------------------------------------|

e|-14-14-14-----------------------15-15-15-14-14-14-----------------------|
B|----------15-15-15------------------------------------------------------|
G|-------------------14-14--------------------------14-14-14--------------|
D|------------------------------------------------------------------------|
A|---------(3X)-----------------------------------------------------------|
E|------------------------------------------------------------------------|

I saw your eyes,
And you made me smile;
For a little while
I was falling in love.

I saw your eyes,
And you touched my mind.
Although it took a while,
I was falling in love.

I saw your eyes,
And you made me cry;
And for a little while
I was falling in love.

I was falling in love.

Falling in love.

Falling in love.

Falling in love.

Falling in love.

============================================================================
Comments