A Faith Called Chaos - Forgive Nothing Chords & Tabs

 

Forgive Nothing Chords & Tabs

A Faith Called Chaos Chords & Tabs

Version: 1 Type: Tab 0 ratings
1 star 2 stars 3 stars 4 stars 5 stars
comments

Forgive Nothing Tab

-------------------------------------------------------------------------------
			     A faith called chaos - forgive nothing
-------------------------------------------------------------------------------
Tabbed by: Justin Trujillo	
Email: jpt2008@sbcyahoo.net

Tuning: standard                This is the most kickass local band eva!!!
Intro
e|---------------------------------------------------------------------------|
B|---------------------------------------------------------------------------|
G|----9-9-9-9-9---9-9-9-9-9---9-9-9-------------------------------------------
D|---------------------------------------------------------------------------|
A|----7-7-7-7-7---7-7-7-7-7---7-7-7------------------------------------------|
E|------------------------------------x6-------------------------------------|

e|---------------------------------------------------------------------------|
B|---------------------------------------------------------------------------|
G|---------------------------------------------------------------------------|
D|---8-8-8-8-8---8-8-8-8-8---8-8-8-------------------------------------------|
A|---7-7-7-7-7---7-7-7-7-7---7-7-7-------------------------------------------|
E|------------------------------------x2-------------------------------------|
   Stacato
e|---------------------------------------------------------------------------|
B|---------------------------------------------------------------------------|
G|--9-9-9-9---9-9-9-9---7-7-7-7---5-5-5-5---9-9-9-9-9-9-9-9-----------------|
D|---------------------------------------------------------------------------|
A|---------------------------------------------------------------------------|
E|---------------------------------------------------------------------------|
[ Tab from: http://www.guitartabs.cc/tabs/a/a_faith_called_chaos/forgive_nothing_tab.html ]
e|---------------------------------------------------------------------------|
B|---------------------------------------------------------------------------|
G|--7-7-7-7---7-7-7-7---9-9-9-9---7----7----7----7----7----7----7----7-------|
D|----------------------------------10---10--10---10---9-----9---9-----9-----|
A|---------------------------------------------------------------------------|
E|---------------------------------------------------------------------------|

e|---------------------------------------------------------------------------|
B|---------------------------------------------------------------------------|
G|---------------------------------------------------------------------------|
D|---------------------------------------------------------------------------|
A|---7-7-7-7-7-7-7-7------------------------5-5-5-5-5-5-5-5------------------|
E|---------------------3-3-3-3-3-3-3-3---x3---------------5-5-5-5-5-5-5-5---|

e|---------------------------------------------------------------------------|
B|---------------------------------------------------------------------------|
G|---------------------------------------------------------------------------|
D|---9----------------7------------------------------------------------------|
A|---7--------5-------5------7-----------------------------------------------|
E|-----x8-----3x8------x8---5x8--------------------------------------------|
  Outro
e|---------------------------------------------------------------------------|
B|---------------------------------------------------------------------------|
G|---------------------------------------------------------------------------|
D|----------------3-3-3-3-3-----5-5-5-5-5-5-5-5------------------------------|
A|---2-2-2-2-2----1-1-1-1-1-----3-3-3-3-3-3-3-3------------------------------|
E|---0-0-0-0-0-----------------------------------x2--------------------------|
Comments