A Dozen Furies - The Cycle Chords & Tabs

 

A Dozen Furies Chords & Tabs

Version: 1 Type: Tab 0 ratings
1 star 2 stars 3 stars 4 stars 5 stars
comments

The Cycle Tab

   
 /  slide up
 \  slide down
 h  hammer-on
 p  pull-off
 ~  let ring for a while
 *  harmonic
 .  Mute note

INTRO
||-------------------------------|
||-------------------------------|
||-------------------------------|
||-7-------7/8\7--5-------5\3/5--| x2
||-7-STURM-7/8\7--5-STURM-5\3/5--|
||-7-------7/8\7--5-------5\3/5--|

||------------------------------------|
||------------------------------------|
||------------------------------------|
||-7--8--7--5--7--5-7---5-------5\3/5-| x4
||----------------------5-STURM-5\3/5-|
||5--5--5--5--5---------5-------5\3/5-|
  .  .  .  .  .
||-------------|  ||------------------------------------| ||----|
||-------------|  ||------------------------------------| ||----|
||-------------|  ||------------------------------------| ||----|
||-0-----------|  || LONG PICK SLIDE-)))))))))))))))))--| ||-7*-|
||-0-LET RING--|  ||------------------------------------| ||----|
||-0-----------|  ||------------------------------------| ||----|

Welcome to cycle...   BRIDGE 1
||----------------------------------------------------|
||----------------------------------------------------|
||----------------------------------------------------|
||----------------------------------------------------|
||-0-0--0---00000----0-0--0---00000---10-9-10-12-10-9-|
||-0-0--0---00000----0-0--0---00000-------------------|
   . .  .   .....    . .  .   .....
||------------------------------------------------------|
||------------------------------------------------------|
||------------------------------------------------------|
||------------------------------------------------------|
||-0-0--0---00000----0-0--0---00000---12-11-12-14-12-11-|
||-0-0--0---00000----0-0--0---00000---------------------|
   . .  .   .....    . .  .   .....
||-----------------|    ||------------------|
||-----------------|    ||------------------|
||-----------------|    ||------------------|
||-----------------| x2 ||------------------| x2
||-0--000-000--12--|    ||-0--000-000--10\--|  
||-0--000-000--12--|    ||-0--000-000--10\--|   
   .  ... ...              .  ... ...  
||-----------------|    ||-----------------|
||-----------------|    ||-----------------|
||-----------------|    ||-----------------|
||-----------------| x2 ||-----------------| x2
||-000-000-000--12-|    ||-000-000-000--10-|
||-000-000-000--12-|    ||-000-000-000--10-|
   ... ... ...             ... ... ...
[ Tab from: http://www.guitartabs.cc/tabs/a/a_dozen_furies/the_cycle_tab.html ]
Chorus
||----------------------------------|
||----------------------------------|
||----------------------------------|
||-3-3-3-3~---7-6-7-8~--4-5-4-5--0~-| x2
||-3-3-3-3~---7-6-7-8~--4-5-4-5--0~-|
||-3-3-3-3~---7-6-7-8~--4-5-4-5--0~-|
 

BRIDGE 2
||-------------------|    ||------------------|       
||-------------------|    ||------------------|       
||-------------------|    ||------------------|       
||---------------10--| x4 ||----------------8-| x4    REPEAT
||-0-STURM FAST--12--|    ||-0-STURM FAST--10-|       
||-0-----------------|    ||-0----------------|       
   .                         .
||-------|
||-------|
||-------|
||-------|
||-0-0-0-|
||-0-0-0-|
   . . .
||-------------|    ||-------------|
||-------------|    ||-------------|
||-------------|    ||-------------|
||---------10--| x4 ||----------8--| x4  REPEAT
||-00--00--12--|    ||-00--00--10--|
||-00--00------|    ||-00--00------|    
   ..  ..              ..  ..
-----------
 CHORUS x2
-----------
 SOLO...Yeah I know this is wrong...
||----------------------------------------|
||-7--8-7-8---9--9-10-9---5-5-6-5-6-8-12*-|
||----------------------------------------|
||----------------------------------------| x2
||----------------------------------------|
||----------------------------------------|
---------
INTRO
---------

||-------------------------------------|
||-------------------------------------|
||-------------------------------------|
||-----------------------------------7*|
||-0-0--0---00000----0-0--0---00000----|
||-0-0--0---00000----0-0--0---00000----|
   . .  .   .....    . .  .   ..... 

||-----------------------------------|
||-----------------------------------|
||-----------------------------------|
||-----------------------------------|
||-0-0--0---00000----10-9-10-12-10-9-|
||-0-0--0---00000--------------------|
   . .  .   .....    
||--------------------------------------|
||--------------------------------------|
||--------------------------------------|
||--------------------------------------|
||-0-0--0---00000-----12-11-12-14-12-11-|
||-0-0--0---00000-----------------------|
   . .  .   .....    

OUTRO
||---------------------------------|
||---------------------------------|
||---------------------------------|
||-7-------3-------5-------7-------| x2
||-7-STURM-3-STURM-5-STURM-7-STURM-|
||-7-------3-------5-------7-------|

||-------------|
||-------------|
||-------------|
||-------------|
||-0-0-0--0000-|
||-0-0-0--0000-|
   . . .  .... 

So that´s pretty much it..its not perfect but it sounds kinda same..enjoy
Comments