A Dozen Furies - Lost In A Fantasy Chords & Tabs

 

A Dozen Furies Chords & Tabs

Version: 3 Type: Tab 0 ratings
1 star 2 stars 3 stars 4 stars 5 stars
comments

Lost In A Fantasy Tab

   
Im not sure if this is 100% correct, but this is how I play it. Please Rate.

Tuned Half Step Down (Drop D)

Intro: Part 1
D#|------------------------|--------|
A#|------------------------|--------|
F#|----10-9-12-10-9-9-9-10-|--------|
C#|000-x--x-x--x--x-x-x-x--|333-777-| 
G#|000-8--7-10-8--7-7-7/8--|333-777-|
C#|000---------------------|333-777-|

D#|------------------------|--------|
A#|------------------------|--------|
F#|----10-9-12-10-9-9-9-10-|--------|
C#|000-x--x-x--x--x-x-x-x--|333-222-| 
G#|000-8--7-10-8--7-7-7/8--|333-222-|
C#|000---------------------|333-222-|

Intro: Part 2
D#|----------------------------|-------------|
A#|----------------------------|-------------|
F#|----14-12-15-14-12-12-12-14-|------9-10-9-|
C#|000-x--x--x--x--x--x--x--x--|333-7-x-x--x-|
G#|000-12-10-13-12-10-10-10/12-|333-7-7/8/-7-|
C#|000-------------------------|333-7--------|

D#|----------------------------|-------------|
A#|----------------------------|-------------|
F#|----14-12-15-14-12-12-12-14-|-------------|
C#|000-x--x--x--x--x--x--x--x--|333-222------|
G#|000-12-10-13-12-10-10-10/12-|333-222------|
C#|000-------------------------|333-222------|

Pre-Verse
D#|----|
A#|----|
F#|----|
C#|00--| x2
G#|00--|
C#|00--|
[ Tab from: http://www.guitartabs.cc/tabs/a/a_dozen_furies/lost_in_a_fantasy_tab_ver_3.html ]
Verse
D#|-----------|
A#|-----------|
F#|----10-9---|
C#|000-10-10--| Repeat as many times needed
G#|000-8--8---|
C#|000--------|

Then play Intro: Part 1 (Without The 2nd Part)
Then play Intro: Part 1 and 2
Then repeat Verse
Then Play Intro: Part 1 (Without The 2nd Part)
Then play Intro: Part 1 and 2

Break (Dont Know Lead Part)
D#|-------|
A#|-------|
F#|-------|
C#|00--00-|
G#|00--00-|
C#|00--00-|
PM ..  ..

Break (Continued)
D#|-----------|
A#|-----------|
F#|--------5*-|
C#|00-00--5*--| x4 (On Fourth, Dont do harmonics)
G#|00-00-5*---|
C#|00-00------|
PM ..  ..  

Break Continued (I just listed the chords, find out timing yourself :))
D#|--------------------------------------------------|
A#|--------------------------------------------------|
F#|10-14-15-12-14-12-15-14-12-109-7-14-15-14-12-109-7|
C#|x--x--x--x--x--x--x--x--x--x-x-x-x--x--x--x--x-x-x|
G#|12/10/13/10/12/10/13/12/10/8/7/5/12/13/12/10/8/7/5|
C#|--------------------------------------------------|

Ending
D#|---------------------|
A#|---------------------|
F#|---------------------|
C#|0003253222/3-333-777-|
G#|0003253222/3-333-777-|
C#|0003253222/3-333-777-|

D#|---------------------|
A#|---------------------|
F#|---------------------|
C#|0003253222/3-333-221-|
G#|0003253222/3-333-222-|
C#|0003253222/3-333-222-|
Comments