A Dozen Furies - Lost In A Fantasy Chords & Tabs

 

A Dozen Furies Chords & Tabs

Version: 2 Type: Tab 0 ratings
1 star 2 stars 3 stars 4 stars 5 stars
comments

Lost In A Fantasy Tab

   
This is close it is tuned down to D.
Tabbed by Kevin Konopi

(5)-Harmonic
~-slide

e|--------------------------------------------|
B|--------------------------------------------|
G|--------------------------------------------|
D|-0-0-0------------------3-3-3-3-7-7-7-7-----|
A|-0-0-0-8-7-10-8-7-7-8-8-3-3-3-3-7-7-7-7-----|
D|-0-0-0-8-7-10-8-7-7-8-8-3-3-3-3-7-7-7-7-----|

Play x2

e|-----------------------------------------------------|
B|-----------------------------------------------------|
G|-----------------------------------------------------|
D|-0-0-0-------------------------3-3-3-3-7-7-7-7-------|
A|-0-0-0-12-10-13-12-10-10-12-12-3-3-3-3-7-7-7-7-7-8-7-|
D|-0-0-0-------------------------3-3-3-3-7-7-7-7-------|

Play x2

e|-----------|
B|-----------|
G|-----------|
D|0-0-0-0-3~-|
A|0-0-0-0-3~-|
D|0-0-0-0-3~-|

e|-----------------------|
B|-----------------------|
G|-----------------------|
D|0-0-0-----0-0-0--------|
A|0-0-0-8-7-0-0-0-8-7----|
D|0-0-0-----0-0-0-----10-|

Play x4

e|--------------------------------------------|
B|--------------------------------------------|
G|--------------------------------------------|
D|-0-0-0------------------3-3-3-3-7-7-7-7-----|
A|-0-0-0-8-7-10-8-7-7-8-8-3-3-3-3-7-7-7-7-----|
D|-0-0-0-8-7-10-8-7-7-8-8-3-3-3-3-7-7-7-7-----|

Play x2

e|-----------------------------------------------------|
B|-----------------------------------------------------|
G|-----------------------------------------------------|
D|-0-0-0-------------------------3-3-3-3-7-7-7-7-------|
A|-0-0-0-12-10-13-12-10-10-12-12-3-3-3-3-7-7-7-7-7-8-7-|
D|-0-0-0-------------------------3-3-3-3-7-7-7-7-------|

Play x2

e|--------------------------------------------|
B|--------------------------------------------|
G|--------------------------------------------|
D|-0-0-0------------------3-3-3-3-7-7-7-7-----|
A|-0-0-0-8-7-10-8-7-7-8-8-3-3-3-3-7-7-7-7-----|
D|-0-0-0-8-7-10-8-7-7-8-8-3-3-3-3-7-7-7-7-----|

Play x2
[ Tab from: http://www.guitartabs.cc/tabs/a/a_dozen_furies/lost_in_a_fantasy_tab_ver_2.html ]
e|-----------------------------------------------------|
B|-----------------------------------------------------|
G|-----------------------------------------------------|
D|-0-0-0-------------------------3-3-3-3-7-7-7-7-------|
A|-0-0-0-12-10-13-12-10-10-12-12-3-3-3-3-7-7-7-7-7-8-7-|
D|-0-0-0-------------------------3-3-3-3-7-7-7-7-------|

Play x2


e|--------------------------------------------|
B|--------------------------------------------|
G|--------------------------------------------|
D|-0-0-0------------------3-3-3-3-7-7-7-7-----|
A|-0-0-0-8-7-10-8-7-7-8-8-3-3-3-3-7-7-7-7-----|
D|-0-0-0-8-7-10-8-7-7-8-8-3-3-3-3-7-7-7-7-----|

Play x2

e|-----------------------------------------------------|
B|-----------------------------------------------------|
G|-----------------------------------------------------|
D|-0-0-0-------------------------3-3-3-3-7-7-7-7-------|
A|-0-0-0-12-10-13-12-10-10-12-12-3-3-3-3-7-7-7-7-7-8-7-|
D|-0-0-0-------------------------3-3-3-3-7-7-7-7-------|

Play x2



e|-----------------------|
B|-----------------------|
G|-----------------------|
D|0-0-0-----0-0-0--------|
A|0-0-0-8-7-0-0-0-8-7----|
D|0-0-0-----0-0-0-----10-|

Play x4



e|-------------------------------------|
B|-------------------------------------|
G|-------------------------------------|
D|0-0-0-0--------0-0-0-0---------------|
A|0-0-0-0-8-7----0-0-0-0-7-10-10~12-12-|
D|0-0-0-0-----10-0-0-0-0---------------|

Play x2

e|--------------------|
B|--------------------|
G|--------------------|
D|-0-0-0-0---------(5)|
A|-0-0-0-0-----(5)----|
D|-0-0-0-0-(5)--------|

Play x3

e|------------|
B|------------|
G|------------|
D|0-0-0-0-0-0-|
A|0-0-0-0-0-0-|
D|0-0-0-0-0-0-|


e|------------------------------------------------------|
B|------------------------------------------------------|
G|------------------------------------------------------|
D|-12-12-12-12-12-12-12-12-10-10-10-10-9-9-9-9-9-9-7-9--|
A|-12-12-12-12-12-12-12-12-10-10-10-10-9-9-9-9-9-9-7-9--|
D|-12-12-12-12-12-12-12-12-10-10-10-10-9-9-9-9-9-9-7-9--|


e|----------------------------------------|
B|----------------------------------------|
G|----------------------------------------|
D|-0-0-0-3-2-5-3-2-2-3-3-5-5-5-5-3-3-3-3--|
A|-0-0-0-3-2-5-3-2-2-3-3-5-5-5-5-3-3-3-3--|
D|-0-0-0-3-2-5-3-2-2-3-3-5-5-5-5-3-3-3-3--|

Play x8
Comments