A Dozen Furies - Cycle Chords & Tabs

 

A Dozen Furies Chords & Tabs

Version: 1 Type: Tab 0 ratings
1 star 2 stars 3 stars 4 stars 5 stars
comments

Cycle Tab

   
the cycle intro

drop C

\ = slide
p = pull off
* = palm mute
~ = ring out
[ Tab from: http://www.guitartabs.cc/tabs/a/a_dozen_furies/cycle_tab.html ]
-----------------------------------------------------------------------------|
-----------------------------------------------------------------------------|
-----------------------------------------------------------------------------|
-9999---11-12-11-9\7-9p7-----------------------------------------------------|
-9999------------------------------------------------------------------------|
-9999---------------------7~-77777777----------------------------------------|
                             ********

-----------------------------------------------------------------------------|
-----------------------------------------------------------------------------|
-----------------------------------------------------------------------------|
-9999---11-12-11-9\7-9p7-----------------------------------------------------|
-9999------------------------------------------------------------------------|
-9999---------------------5~-55555555----------------------------------------|


REPEAT TWICE
                             ********
Comments
A Dozen Furies chords | A Dozen Furies Cycle tab