A Change Of Pace - Goodbye For Now Chords & Tabs

 

Goodbye For Now Chords & Tabs

A Change Of Pace Chords & Tabs

Version: 1 Type: Tab 0 ratings
1 star 2 stars 3 stars 4 stars 5 stars
comments

Goodbye For Now Tab

   
Alright here you go people.. didn't really provide the strumming so just listen to the
song.. and im not exactly sure what guitar 1 does for the verses or the outro so if
anyone can help me out there. thanks.

[ Tab from: http://www.guitartabs.cc/tabs/a/a_change_of_pace/goodbye_for_now_tab.html ]
          A Change Of Pace - Goodbye For Now
			Intro (G1)
e :------------------------------------------------------|
B :------------------------------------------------------|
G :----9-7----9--------------1210-9h10p9----------------|
D :-10-----10---12x7---------------------10~------------|
A :------------------------------------------------------|
E :------------------------------------------------------|
			Intro (G2)
e :------------------------------------------------------|
B :---------------------------------------End On---------|
G :------------------------------------------------------|
D :-10101010--7777--5555-3333----3~---------10~----------|
A :-10101010--7777--5555-3333-x2-3~---------10~----------|
E :-10101010--7777--55553333----3~---------10~----------|
			Verse 1 (G2)
e :------------------------------------------------------|
B :------------------------------------------------------|
G :------------------------------------------------------|
D :-10~------------10~-----------------------------------|
A :-10~------------10~-----------------------------------|
E :-10~------------10~-----------------------------------|
			Chorus 1 (G1)
e :------------------------------------------------------|
B :------------------------------------------------------|
G :----9-7----9--------------1210-9h10p9----------------|
D :-10-----10---12x7---------------------10~------------|
A :------------------------------------------------------|
E :------------------------------------------------------|
			Chorus 1 (G2)
e :------------------------------------------------------|
B :---------------------------------------End On---------|
G :------------------------------------------------------|
D :-10101010--7777--5555-3333----3~---------10~----------|
A :-10101010--7777--5555-3333-x2-3~---------10~----------|
E :-10101010--7777--55553333----3~---------10~----------|
			Verse 1 (G2)
e :------------------------------------------------------|
B :------------------------------------------------------|
G :------------------------------------------------------|
D :-10~------------10~-----------------------------------|
A :-10~------------10~-----------------------------------|
E :-10~------------10~-----------------------------------|
			Chorus 2 (G1)
e :------------------------------------------------------|
B :------------------------------------------------------|
G :----9-7----9--------------1210-9h10p9----------------|
D :-10-----10---12x7---------------------10~------------|
A :------------------------------------------------------|
E :------------------------------------------------------|
			Chorus 2 (G2)
e :------------------------------------------------------|
B :------------------------------------------------------|
G :------------------------------------------------------|
D :-10101010--7777--5555-3333----------------------------|
A :-10101010--7777--5555-3333-x2-------------------------|
E :-10101010--7777--55553333----------------------------|
			Bridge 1 (G1) *all P.M
  Play this part two times but the second time you only go to the third one and end with |G-12~|.
e :------------------------------------------------------|
B :------------------------------------------------------|
G :---------12---------------12--------------------------|
D :-7-7-9-7----10-9-107-7-9----10-9-10------------------|
A :------------------------------------------------------|
E :------------------------------------------------------|

e :------------------------------------------------------|
B :------------------------------------------------------|
G :---------10---------------10--------------------------|
D :-7-7-9-7----10-9-10-7-7-9----10-9-10------------------|
A :------------------------------------------------------|
E :------------------------------------------------------|

e :------------------------------------------------------|
B :------------------------------------------------------|
G :---------9---------------9----------------------------|*******
D :-7-7-9-7---10-9-10-7-7-9---10-9-10--------------------|
A :------------------------------------------------------|
E :------------------------------------------------------|

e :------------------------------------------------------|
B :------------------------------------------------------|
G :---------7---------------7-----------------------(12)-|
D :-7-7-9-7---10-9-10-7-7-9---10-9-10-7-----------------|
A :------------------------------------------------------|
E :------------------------------------------------------|
			Bridge 1 (G2)
e :------------------------------------------------------|
B :------------------------------------------------------|
G :------------------------------------------------------|
D :-7~--10~--5~--3~--------------------3333--------------|
A :-7~--10~--5~--3~-x2-----------------3333-x2-----------|
E :-7~--10~--5~--3~--------------------3333--------------|
			Chorus 3 (G1)
e :------------------------------------------------------|
B :------------------------------------------------------|
G :----9-7----9--------------1210-9h10p9----------------|
D :-10-----10---12x's--------------------10~------------|
A :------------------------------------------------------|
E :------------------------------------------------------|
			Chorus 3 (G2)
e :------------------------------------------------------|
B :------------------------------------------------------|
G :------------------------------------------------------|
D :-10101010--7777--5555--3333---------------------------|
A :-10101010--7777--5555--3333-x2------------------------|
E :-10101010--7777--5555-3333---------------------------|
			Outro (G2)
e :------------------------------------------------------|
B :------------------------------------------------------|
G :------------------------------------------------------|
D :--101010x-333x-777x-555x--101010--333--777--555-10~--|
A :--101010x-333x-777x-555x--101010--333--777--555-10~--|
E :--101010x-333x-777x-555x--101010--333--777--555-10~--|
Comments