A Change Of Pace - A Farewell To Friendship Chords & Tabs

 

A Farewell To Friendship Chords & Tabs

A Change Of Pace Chords & Tabs

Version: 1 Type: Tab 0 ratings
1 star 2 stars 3 stars 4 stars 5 stars
comments

A Farewell To Friendship Tab

   
----------------------------------------------------------------------------
		A FAREWELL TO FRIENDSHIP - A Change Of Pace
----------------------------------------------------------------------------
Tabbed by: Brian Huber
Email: bth141@psu.edu

Tuning: E A D G B D


Hey everyone, I tabbed this song the best I could.
I also didn't include how many times to strum a particular chord, etc.
Just listen to the song for the strum pattern.

Have fun with it! =)


  INTRO x2

   D          Dmaj7      Gadd9(#11) Gadd9

d|-0----------0----------x----------x--------------|
B|-3----------2----------2----------3--------------|
G|-2----------2----------2----------2--------------|
D|-0----------0----------0----------0--------------|
A|-0----------0----------x----------x--------------|
E|-x----------x----------3----------3--------------|

  RIFF 1 X4

   D

d|-0-----0-----------0-----x-----------------------|
B|-3---2---2-------2---2---3-----------------------|
G|-2-2-------2---2-------2-2-----------------------|
D|-0-----------0-----------0-----------------------|
A|-------------------------x-----------------------|
E|-------------------------3-----------------------|

  RIFF 2 x2

   Dmaj7
[ Tab from: http://www.guitartabs.cc/tabs/a/a_change_of_pace/a_farewell_to_friendship_tab.html ]
d|-------0-----------0-----------0-----------0-----|
B|-----2---2-------2---2-----------2-----------2---|
G|---2-------2---2-------2---2-------2---2-------2-|
D|-0---------------------------0-----------0-------|
A|-------------0-----------------------------------|
E|-------------------------3-----------3-----------|

  RIFF 3 x2

   D          Dmaj7      Gadd9

d|-0----------0----------x----------x--------------|
B|-3----------2----------3----------3--------------|
G|-2----------2----------2----------2--------------|
D|-0----------0----------0----------0--------------|
A|-0----------0----------x----------x--------------|
E|-x----------x----------3----------3--------------|

  RIFF 1 x4

  RIFF 3 x6

  BRIDGE x2

   Bm         Gadd9      D          Asus  A

d|-0----------x----------0----------0-----x--------|
B|-3----------3----------3----------3-----2--------|
G|-4----------2----------2----------2-----2--------|
D|-4----------0----------0----------2-----2--------|
A|-2----------x----------0----------0-----0--------|
E|------------3----------x-------------------------|

  RIFF 2 x2

  RIFF 3 x2


| /  slide up
| \  slide down
| h  hammer-on
| p  pull-off
| ~  vibrato
| +  harmonic
| x  Mute note
============================================================================
Comments