A Black Rose Burial - The Epidemic Of Unexpected Relapses Chords & Tabs

 

A Black Rose Burial Chords & Tabs

Version: 1 Type: Tab 0 ratings
1 star 2 stars 3 stars 4 stars 5 stars
comments

The Epidemic Of Unexpected Relapses Tab

   
A Black Rose Burial - The Epidemic Of Unexpected Relapses

Tuning: Drop B (B F# B E G# C#)


--------------------------------------------16---|
-----------------------1717--------------16------|
-1111111111111111-1414------1414-1313-16---------|
-------------------------------------------------|
-------------------------------------------------|
-------------------------------------------------|

----------13-----------------------------------16------------------|
-------------121212-------1717--------------16---------------------|
-11111111------------1414------1414-1313-16--------1111111111------|
---------------------------------------------------------------\---|
---------------------------------------------------------------\---|
---------------------------------------------------------------\---|

-------------------------------------------------|
------4-----------4------------------------------|
--------7-----------7----------------------------|
-0~----------0~----------4-3-2--/---4------/-----|
-0~----------0~----------4-3-2--/---4-7-6--/-----|
-0~----------0~----------4-3-2--/---4-3-2--/-----|
 .           .           . . .      . . .
[ Tab from: http://www.guitartabs.cc/tabs/a/a_black_rose_burial/the_epidemic_of_unexpected_relapses_tab.html ]
-------------------------------9-7---7-7-7---9-7---7-7-5-----|
-----------10/12--12--12\11----x-x---x-x-x---x-x---x-x-x-----|
-----------11/13--13--13\12---11-9---9-9-9--11-9---9-9-9-----|
-4~---0------------------------------------------------------|
-4~---0------------------------------------------------------|
-4~---0------------------------------------------------------|
      .

----------------------------------/12---|
----------------------------------------|
----------------------------------------| x2
-2-1-0000----0000-2-1-0000----0---------|
-2-1-0000-9--0000-2-1-0000-9--0---------|
-2-1-0000----0000-2-1-0000----0---------|
 . . ....    .... . . ....    .


----------------------------------------------------------|
----------------------------------------------------------|
-9-9999-10-99-9-9999-10-99--9-9999-999-5-5555-555---------|
-0-0000--0-00-0-0000--0-00--8-8888-888-3-3333-333---------|
----------------------------------------------------------|
----------------------------------------------------------|

-------------------------------------------------------------------------|
-----15-------15-------15-------15-------18-------18--1818181817171717---|
-1414--14-1414--14-1515--15-1515--15-1717--17-1717--17-------------------|
-------------------------------------------------------------------------|
-------------------------------------------------------------------------|
-------------------------------------------------------------------------|

----------------------------------|
----------------------------------|
----------------------------------|
-000000-00-00---00-000000-00-00---|
-000000-00-00---00-000000-00-00---|
-000000-00-00---00-000000-00-00---|
 ...... .. ..   .. ...... .. ..


| /  slide up
| \  slide down
| h  hammer-on
| p  pull-off
| ~  vibrato
| +  harmonic
| x  Mute note
Comments