A1 - Make It Good Chords & Tabs

 

Make It Good Chords & Tabs

A1 Chords & Tabs

Version: 1 Type: Tab 0 ratings
1 star 2 stars 3 stars 4 stars 5 stars
comments

Make It Good Tab

   
____________________________________________________________________________
----------------------------------------------------------------------------
			 A1 - MAKE IT GOOD (INTRO)
----------------------------------------------------------------------------
****************************************************************************

This Is The Only One That You 
Will Find On The Net Which Is 90% Accurate.
Can Be Played On Acoustic But Will Sound Awesome On Electric.

Tabbed by: Abdul Sameer
Email: abdulsameer99@hotmail.com

Standard Tuning:EADGBe

Intro
*****
e|-----------------------------------|
B|-----------------------------------|
G|-------0-0-2-------2--0------------|
D|---0-----------0-------------------|
A|-----------------------------------|
E|-----------------------------------|

e|-----------------------------------|
B|--------1-1-1-0--------------------|
G|-0-0-------------0-0-2------2--0---|
D|------------------------0----------|
A|-----------------------------------|
E|-----------------------------------|

Play It Twice (x2)

Then The Verse Kicks Off With 
[ Tab from: http://www.guitartabs.cc/tabs/a/a1/make_it_good_tab.html ]
Verse
*****
G                     C             
When you're weary, When you're down and out
A            Cadd9
Lay your hands on me
G                      C
I count my blessings, think of all I have
A                       Cadd9
She never thought about it then threw it all away
G                         A
Left it all to chance, She tore down fences
Cadd9                     A 
Now it seems so wasted wish she could turn back time.

Chorus 1
********
G                    A
Now she's down on her knees to pray
          Cadd9                C
Baby please make it good, make it good somehow
G
She will do anything to change
         C                    G
So please make it good, make it good somehow
G   C    A       
Someone please
G                    C
When you're weary, when you're down and out
A          Cadd9
Lay your hands on me

G                C
had a vision. Time to make a stand
A                       Cadd9
for all she is to me, to turn her life around
G                       C
To take back yesterday's never easy
A                    G               Cadd9           
When you're wrong you're wrong. It seems impossible so

Chorus 2
********
Strum These Chords Slowly When Mark Says
"Welcome To Your Revolution"

G                C             
Welcome to your revoloution 
G               C          A
What you dream is what you see
G                    Cadd9
There's no rules or regulations
G         C             A
Let the music set you free

G                      C
When you're weary, When you're down and out
A             Cadd9
Lay your hands on me

*Repeat The Intro


To Get The Right Rythm Listen To The Song

ENJOY!
Comments