A - Starbucks Chords & Tabs

 

Starbucks Chords & Tabs

A Chords & Tabs

Version: 1 Type: Tab 0 ratings
1 star 2 stars 3 stars 4 stars 5 stars
comments

Starbucks Tab

E:-----12-----------12-----------12-----------12---------------
B:---------12----------12------------10-----------10-----------
G:---9--------9-11--------11-9---------9-11---------11-------
D:-----------------------------------------------------------------
A:-----------------------------------------------------------------
E:-----------------------------------------------------------------

E:------12----------12--------------12-------------12----------
B:----------9-----------9--------10-----10-----10-----10------
G:---9--------9-11-------11-9-------------11------------------
D:-----------------------------------------------------------------
A:-----------------------------------------------------------------
E:-----------------------------------------------------------------

[ Tab from: http://www.guitartabs.cc/tabs/a/a/starbucks_tab.html ]
Comments