8stops7 - Satisfied Chords & Tabs

 

Satisfied Chords & Tabs

8stops7 Chords & Tabs

Version: 1 Type: Tab 0 ratings
1 star 2 stars 3 stars 4 stars 5 stars
comments

Satisfied Tab

8Stops7 - Satisfied
From - 'In Moderation'
Tabbed by Aaron Brook - chooka37@hotmail.com

DADGBE

Intro/Verse

|------------------------| 
|------------------------| 
|------------------------|
|------------------------|
|----5----5--------5-----|
|--0----0----0-3s5-------|

Pre-Chorus

|--------------------------------------------------------------|
|--------------------------------------------------------------|
|--------------------------------------------------------------|
|--------------------------------------------------------------|
|--------7-----------5----ends with-----------------4----------|
|---0-0----0-6-0-5-5-------------------0h3h5-0h3h5-------------|

Chorus

|-------------------------------------------------------------------------|
|-------------------------------------------------------------------------|
|-------------------------------------------------------------------------|
|-------------------------------------------------------------------------|
|---0-3-3--0-3-3--0-3-3--0-3-0-5-----5----5--------5-----5----5--------5--|
|---0-3-3--0-3-3--0-3-3--0-3-0-5---0----0----0-3s5-----0----0----0-3s5----|
[ Tab from: http://www.guitartabs.cc/tabs/0-9/8stops7/satisfied_tab.html ]
|-------------------------------------------------------------------------|
|-------------------------------------------------------------------------|
|-------------------------------------------------------------------------|
|-------------------------------------------------------------------------|
|---3-3--0-3-3--0-3-3--0-3-0-3----then-start-on-the-verse-part-again------|
|---3-3--0-3-3--0-3-3--0-3-0-3--------------------------------------------|

Bridge

|-------------------------------------------------------------------------|
|-------------------------------------------------------------------------|
|-------------------------------------------------------------------------|
|-------------------------------------------------------------------------|
|--0-3-0-3-0-3---play-a-few-times-then---5--------5p0----5--------5p0-----|
|--0-3-0-3-0-3-----------------------------0-3-0------0----0-3-0------0---|
Play twice with some variation

Then there's this a few times
|-----------------------------------------------|
|-----------------------------------------------|
|-----------------------------------------------|
|-----------------------------------------------|
|-0-3-3--0-3-3--0-3-3--0-3-3--------------------|
|-0-3-3--0-3-3--0-3-3--0-3-3--------------------|

Then some more of the verse riff. It's pretty straightforward and easy to figure out.

As usual, no comments 'cos I don't care

Chooka
Comments