8 Foot Sativa - Believer Chords & Tabs

 

Believer Chords & Tabs

8 Foot Sativa Chords & Tabs

Version: 1 Type: Tab

Believer Tab

   
Believer by 8 Foot Sativa

www.8footsativa.com

Tuning (from low to high) b, f#, b, e, g#, c#,

Beats per min:180

||---------------------------------------------------------------------------------|
||---------------------------------------------------------------------------------|
||--7--7-7--7--7--7--7--9--9-9--9--9--9--9--7--7-7--7--7--7--7--10--10--10--6--6--6|
||---------------------------------------------------------------------------------|
||--5--5-5--5--5--5--5--7--7-7--7--7--7--7--7--5-5--5--5--5--5--8 --8 --8 --4--4--4|
||---------------------------------------------------------------------------------|


|------------------------------------------------------------------------------------||Repeat 3 times
|------------------------------------------------------------------------------------||
|--7--7-7--7--7--7--7--9--9-9--9--9--9--9--7--7-7--7--7--7--7--10-/12--12--12-/14--14||
|------------------------------------------------------------------------------------||
|--5--5-5--5--5--5--5--7--7-7--7--7--7--7--7--5-5--5--5--5--5--8 -/10--10--10-/12--12||
|------------------------------------------------------------------------------------||

   pm pm   pm pm     pm pm pm     h 
||-------------------------------------||Repeat 4 times
||-------------------------------------||
||-------------------------------------||
||-------------------------------------||
||--0--0--1--0--0--1--0--0--0--1--3--3-||
||--0--0--1--0--0--1--0--0--0--1--3--3-||
[ Tab from: http://www.guitartabs.cc/tabs/0-9/8_foot_sativa/believer_tab.html ]
                                                           h p
||----------------------------------------------------------------------------||Repeat 3 times
||----------------------------------------------------------------------------||
||----------------------------------------------------------------------------||
||--------------------5----------------------------------7-8-7------7---------||
||--5--7--8--8--7--8-----7--8--8--7--8--5--7--8--8--7--8--------10-----10--8--||
||----------------------------------------------------------------------------||

Bend this for 4 bars
|-------------------|
|-------------------|
|-------------------|
|-------------------|
|--0----------------|
|--0----------------|

                   pm pm pm pm pm pm   
||-----------------------------------||
||-----------------------------------||Repeat 3 times
||-----------------------------------||
||-----------------------------------||
||--0----7----6----0--5--6--0--5--6--||
||--0----7----6----0--5--6--0--5--6--||

       pm pm pm    pm pm pm     pm pm pm     pm pm pm     pm pm pm pm        pm                 
||------------------------------------------------------------------------------------||Repeat 3 times
||------------------------------------------------------------------------------------||
||------------------------------------------------------------------------------------||
||--------------------------------------------------------------------9--10-----7--8--||
||--5-----------5-----------12-----------12-----------11-----------8---------6--------||
||-----0--0--0-----0--0--0------0--0--0------0--0--0------0--0--0---------------------||

I played this heaps and sounds just like it.