88 Fingers Louie - State Chords & Tabs

 

State Chords & Tabs

88 Fingers Louie Chords & Tabs

Version: 2 Type: Bass Tab 0 ratings
1 star 2 stars 3 stars 4 stars 5 stars
comments

State Bass Tab

   
------------------------------------------------------------------------
                        STATE - 88 FINGERS LOUIE
------------------------------------------------------------------------

By:Sinkavich@aol.com

  INTRO:
G|--------------------------------------------------------------------|
D|--------------------------------------------------------------------|
A|-------------------------------------------------3-3-3-3------------|
E|-0-0-0-0-0-0-0-0-0-0-0-0-0-0-0-0-0-0-0-0-0-0-0-0---------1-1-1-1----|

  VERSE 1                                                           X2
G|--------------------------------------------------------------------|
D|---------2-0-------------2-0-3-2---------2-0------------------------|
A|-------------3-2-----------------------------3-2--3-3-3-3-----------|
E|-0-0-0-0---------0-0-0-0---------0-0-0-0------------------1-1-1-1---|

[ Tab from: http://www.guitartabs.cc/tabs/0-9/88_fingers_louie/state_btab_ver_2.html ]
G|--------------------------------------------------------------------|
D|--------------------------------------------------------------------|
A|-------------2-3-3-3---------3-5-5-5---------2-3-3-3---------3-5-5-5-
E|-0-0-0-0-0-----------1-0-0-0---------1-0-0-0---------1-0-0-0--------------


G|------------|
D|------------|
A|-5-5--------|
E|-----1-1-0--|

REPEAT ALL OF VERSE ONE 2X

  VERSE 2: SOLO
                                  X2
G|----------------------------------|
D|----------------------------------|
A|-7--7--7-8--7--5-3--3--3-5--3--5--|
E|--00-00-0-00-00-0-00-00-0-00-00-0-|

                                               X2
G|-----------------------------------------------|
D|-----------------------------------------------|
A|-7-7-7-7-8-8-8-7-7-5-5-3-3-3-3-5-5-5-3-3-3-5-5-|
E|-----------------------------------------------|


G|---------------------------------|
D|---------------------------------|
A|---------------------------------|
E|-0-0-0-0-0-0-0-0---0-0-0-0-0-0-0-|

BLA!BLA!BLA!

========================================================================
Comments