88 Fingers Louie - Ritter Chords & Tabs

 

Ritter Chords & Tabs

88 Fingers Louie Chords & Tabs

Version: 1 Type: Bass Tab 0 ratings
1 star 2 stars 3 stars 4 stars 5 stars
comments

Ritter Bass Tab

---------------------------------------------------------------------------
Ritter        /           88 FINGERS LOUIS
---------------------------------------------------------------------------

Riff 1
G|---------------------------------------------------------------|
D|---------------------------------------------------------------|
A|-6-3-3-3-3-----------------------------------------------------|
E|-----------6-3-5-5-5-------------------------------------------|

Riff 2
G|---------------------------------------------------------------|
D|---------------------------------------------------------------|
A|-------6-6-6-8-8-8-3-3-3---------------------------------------|
E|-3-3-3---------------------------------------------------------|
[ Tab from: http://www.guitartabs.cc/tabs/0-9/88_fingers_louie/ritter_btab.html ]
Riff 3
G|---------------------------------------------------------------|
D|---------------------------------------------------------------|
A|-------6-6-6-8-8-8-3-3-3-6-6-6-8-8-8-10------------------------|
E|-3-3-3---------------------------------------------------------|

Riff 4
G|-----|----------------------------------------------------------|
D|-----|----------------------------------------------------------|
A|-6-5-|-3-3-3-3-3-3-3-3-1-1-1-1-------------1---3-3-3-3-3-3-3-3--|
E|-----|-------------------------3-3-3-3-4-4---3------------------|

Riff 5
G|---------------------------------------------------------------|
D|------------------------------1-3---1-3---1-3------------------|
A|-------6-6-6-8-8-8-3-3-3----3-----3-----3-----3----------------|
E|-3-3-3---------------------------------------------------------|

Riff 1|6x
Break
Riff 1|4x
Riff 2|2x
Riff 3|1x
Riff 1|6x
Riff 2|2x
Riff 3|1x
Riff 4|4x
Riff 1|6x
Riff 2|2x
Riff 5|1x 








Comments