7 Deadly Sins - Oh Canada Chords & Tabs

 

Oh Canada Chords & Tabs

7 Deadly Sins Chords & Tabs

Version: 1 Type: Tab 0 ratings
1 star 2 stars 3 stars 4 stars 5 stars
comments

Oh Canada Tab

   
 Oh Canada THIS IS NOT THE REAL VERSION, THIS IS THE 7 DEADLY SINZ VERSION
The 7 deadly sins
Giutar1=Joey guitar 2=matt guitar3=mikey bass=Jason drums=seb keyboards=David vocals=joey
September 20th 2004
Copyright 7 deadly sins
Gain=10 treble=10 middle=10 bass-5 boost=on
Basic tuning= EBGDAE 
[ Tab from: http://www.guitartabs.cc/tabs/0-9/7_deadly_sins/oh_canada_tab.html ]
Guitar 1 and 2-~~~~~~~~~~~~~~~~~~~~~~~~~~~
E|-----------------------------------------|
B|-----------------------------------------|
G|-----------------------------------------|
D|--2--5-5-0---0---2----3---5---7-----0----|
A|---------3-------------------------------|
E|-----------------------------------------|
    Oh Canada, our home and native land
E|--------------------------------------------------|
B|--------------------------------------------------|
G|--------------------------------------------------|
D|--2----4-----4---5------7--9---9----7-----7--5----|
A|--------------------------------------------------|
E|--------------------------------------------------|
    True patriot love, in all thy Son's command
E|--------------------------------------------------------------------------|
B|--------------------------------------------------------------------------|
G|--------------------------------------------------------------------------|
D|--0--2---3----2----0-------2-3-5---3----2-----3-5-7----5-----3------2---0-|
A|--------------------------------------------------------------------------|
E|--------------------------------------------------------------------------|
    With glowing hearts, we see thee rise, the true north strong
And free
E|------------------------------------------------------------------------|
B|------------------------------------------------------------------------|
G|------------------------------------------------------------------------|
D|--0---2--3-----2---0-----2-3-5-3-2--2---0-----5--5--3----2---5----3-2-0-|
A|------------------------------------------------------------------------|
E|------------------------------------------------------------------------|
    From   far   and wide, Oh Canada, we stand on guard   for thee
E|------------------------------------------|
B|------------------------------------------|
G|------------------------------------------|
D|--2---5----5---0-----3--3----7---7---0----|
A|---------------3--------------------------|
E|------------------------------------------|
    God keep our land, glorious and free
E|--------------------------------------------|
B|--------------------------------------------|
G|--------------------------------------------|
D|--5--6-6-7---5---4-----2---0-----2---4------|
A|--------------------------------------------|
E|--------------------------------------------|
    Oh Canada, we stand on guard for thee
E|----------------------------------------------|
B|----------------------------------------------|
G|----------------------------------------------|
D|--5--10-10-7---3---2-----0---5-----9---10-----|
A|----------------------------------------------|
E|----------------------------------------------|
    Oh Canada, we stand on guard for thee
Guitar 3
E--------------------------------------|
B--------------------------------------|
G--------------------------------------|
D--------------------------------------|
A-2-2-2-2-2-2-5-5-5-5-5-5-7-7-7-7-7-7--|
E-0-0-0-0-0-0-3-3-3-3-3-3-5-5-5-5-5-5--|
Bass
E--------------------------|
B--------------------------|
G--------3-/1-0-1-0-1-0-1--|
D-3-3-/5-------------------|
Guitar 1 repeat
E-----------------------------|
B-----------------------------|
G-----------------------------|
D-----------------------------|
A-2-2-2-2-5-7-9-2-2-2-2-9-7-5-|
E-0-0-0-0-3-5-7-0-0-0-0-7-5-3-|

Solo guitar1
repeat
E---------------|------------------------------5-6-7-7-6-5-----------------------------
B---------------|------------------------5-6-7------------7-6-5------------------------
G---------------|-------------------5-6-7----------------------7-6-5-------------------
D---------------|-------------5-6-7----------------------------------7-6-5-------------
A-2-5-7-9--8-7-|-g------5-6-7--------------------------------------------7-6-5--------
E-0-7-9-11-10-9-|-g-5-6-7-------------------------------------------------------7-6-5b-

E--------------5-7-5-7-5-7-5-7----------------------------------------15-17----------
B-----------5-7---------------5-7--------------------------------13-15-----15-17-----
G--------5-7---------------------5-7------------------------11-13---------------15-17
D----5-7-----------------------------5-7----------------9-11-------------------------
A5-7------------------------------------5-7--------7-9------------------------------
E7------------------------------------------5-7-5-7----------------------------------

E--------------------------------------------------------------------------------|
B--------------------------------------------------------------------------------|
G--------------------------------------------------------------------------------|
D-15-17--------------------------------------------------------------------------|
A------15-17------------------------------------------------------------------2--|
E------------15-17-16-15-16-14-13-12-13-11-10-9-10-9-8-7-8-6-5-4-5-3-2-1-2b-0-0--|

E------------------------------------------------|
B------------------------------------------------|
G------------------------------------------------|
D------------------------------------------------|
A-5-5-5-5-5-5-5-5-5-5-5-5-5-5-5-5-5-5-2~~~~~~~-2-|
E-3-3-3-3-3-3-3-3-3-3-3-3-3-3-3-3-3-3-0~~~~~~~-0-|

Oh Canada
Our home and native land
True patriot love
In all thy sons command
With glowing hearts 
We see the rise
The true north strong and free
From far and wide 
Oh Canada
We stand on guard for thee
God keep our land
Glorious and free
Oh Canada 
We stand on guard for thee
Oh Canada
We stand on guard for thee

Let me hear you people
Oh Canada
We stand on guard for thee
Comments