6 Voltios - Lukas Chords & Tabs

 

Lukas Chords & Tabs

6 Voltios Chords & Tabs

Version: 1 Type: Chords 0 ratings
1 star 2 stars 3 stars 4 stars 5 stars
comments

Lukas Chords

   
|-------------------------------------------------------------|
|-------------------------------------------------------------|
|---------3--3-------3-6-4-3-1--------3--3--------3-4-3-1-----|
|--4-4--4--4---4---------------1-1--1--1------------------4---|
|----------------4-4-----------------------4-4--4-------------|
|-------------------------------------------------------------|


F#5      C#5          D#5          B5
Mi perro mi mejor amigo de el nunca recibi una traicion
F#5     C#5         D#5 B5	 C#5    
y cuando me siento solo   lo miro y digo
F#5      C#5             D#5       A#5
Mi perro mi fiel compañero contigo yo miro la luna
B5 F#5        C#5     F#5(2) F5(2) G#5(2)
y olvido esta soledad

(F#5 C#5 D#5 B5)x 2

|-------------------------------------------------------------|
|-------------------------------------------------------------|
|---------3--3-------3-6-4-3-1--------3--3--------3-4-3-1-----|
|--4-4--4--4---4---------------1-1--1--1------------------4---|
|----------------4-4-----------------------4-4--4-------------|
|-------------------------------------------------------------|


F#5         C#5             D#5       B5
Prefiero un perro que una perra por eso te quedaste atrás
F#5      C#5         D#5 B5 	   C#5 
y cuando me siento solo    lo miro y digo

F#5      C#5             D#5       A#5
Mi perro mi fiel compañero contigo yo miro la luna
B5 F#5        C#5     F#5(2) F5(2) G#5(2)
y olvido esta soledad

F#5      C#5             D#5       A#5
Mi perro mi fiel compañero contigo yo caminaré 
B5 F#5        C#5        F#5(2) F5(2) G#5(2)
las calles de esta ciudad

--------------------------
Solo pendejo con acordes 
---------------------------
(esta parte es realmente un tormento y alexis la
toca en vivo en realidad como un punteo, pero estoy
seguro que esto es lo que toca en el disco)
[ Tab from: http://www.guitartabs.cc/tabs/0-9/6_voltios/lukas_crd.html ]
F#5 B5 A#5(x2)
F5 A#5 G#5(X2)
F#5 B5 A#5
F#5 A#5 B5
F#5 B5 A#5
F#5 A#5 B5 A#5
(va una vez con distorsión (todo),luego se mutea hasta 
 la parte donde se deja de repetir y va con distorsión 
 para terminar el riff)

F#5 C#5 D#5 A#5 B5 
(esta va con un solo razgado durante el solo de Emilio) 

F#5 A#5 B5 A#5
F#5 A#5 B5 A#5
F5 F#5 G#5 A#5 B5 A#5 G#5 F#5
(van dos veces muetado todo y las dos siguientes a full
 distorsión!)

Luego...


F#5      C#5             D#5       A#5
Mi perro mi fiel compañero contigo yo miro la luna
B5 F#5        C#5     F#5(2) F5(2) G#5(2)
y olvido esta soledad

F#5      C#5             D#5       A#5
Mi perro mi fiel compañero contigo yo caminaré 
B5 F#5        C#5        F#5(2) F5(2) G#5(2)
las calles de esta ciudad



(F#5 C#5 D#5 B5)x 2    

|-------------------------------------------------------------|
|-------------------------------------------------------------|
|---------3--3-------3-6-4-3-1--------3--3--------3-4-3-1-----|
|--4-4--4--4---4---------------1-1--1--1------------------4---|
|----------------4-4-----------------------4-4--4-------------|
|-------------------------------------------------------------|

F#5

 
Notas:
Esta canción se toca originalmente con dos guitarras pero la verdad
es que Alexis solo usa una guitarra en las tocadas y como dije 
reemplaza la nota raíz por un acorde, ya sabrán ustedes como la tocan


'UN saludo a Vorax (me llegan al pincho), al kabrón de Toño (ANFIBIO)
 al loser de Figu, y a Juan (SOLO POR LA CAÑA),a mis patas de mi banda
 (XlaRPM) Giancarlos y REnzo (LUCHO NOS LLEGASTE AL PINCHO) a mi 
 perro (obviamente) y la perra ke me vaya a dejar por estos momentos'

Keep on Punk RockiN!
ReCueRDEn El PuNK No Es EtikeTa Ni MOdA...Es AKTituD!
Comments