6 Cycle Mind - Sige Chords & Tabs

 

Sige Chords & Tabs

6 Cycle Mind Chords & Tabs

Version: 5 Type: Tab 0 ratings
1 star 2 stars 3 stars 4 stars 5 stars
comments

Sige Tab

   
Sige - 6 Cycle Mind


Name: Jayson I. Bea						Score:
Section: 4th Yr. - Copernicus	Date: 12-6-2004			Parents' Signature:

NOTE:  Nakita ko sa mga ibang chords B/C ung gnamit, pero napanuod ko sa cmula nung
MTV, ung lasing na naggtra, em ung gnamit. Advice ko lng gmitin nyo em kc mas mgnda ung
tunog....enjoy Motherfuckers!!!! Kinapa ko lng tung tab nato. To na ung pinkamtinong tab
na "Sige". Para to sa lahat ng tga DLA Molino. Lalung-lalo na sa True Syndicates At SA
Lahat Ng 4th Yr. - Copernicus. Pag may corrections, e-mail niyo ko sa
slash@soulasylum.net. P.S. - - Vote Niyo ngA Pla Tong Tab!!


INTRO:

	C-
	C5-E5 (4x)

   
e:-------------|----------------------------|-------------|-5~-4~-2~-----8--7--5~--|-------|
B:-------------|----------------------------|-------------|-6~-5~-3~-OR-10~-9~-7~--|-------|
G:-------------|----------------------------|-------------|-5~-4~-2~----10~-9~-7~--|-------|  (2X)
D:-------------|---0-2-3~~-2~~-0-2~-0-------|-------------|-------------10~-9~-7~--|-------|
A:-3~~-0-------|-0---------------------xx---|-3~~-0-------|--------------8--7--5---|-----0-|
E:-------3~~-0-|-----------------------xx---|-------3~~-0-|------------------------|-3~~---|

First Stanza:

C             em
Sige, pag kasama ka naman,
          Am                    F
Kitang-kita ko ang ating kasiyahan
C                  em
Sige, wag na nating pigilan
   Am               F
At di magtatagal, tayo ay liligaya

Refrain:
em         Am            em   Am  
Okey lang naman ang ating usapan
              em   Am           F
Hindi na lang babalikan ang nakaraan
         G
Ang nakaraan
[ Tab from: http://www.guitartabs.cc/tabs/0-9/6_cycle_mind/sige_tab_ver_5.html ]
Chorus:
C                em
Ayos lang, basta't kasama 
Am(break)
Konting alak lang,
  F
Kahit walang pulutan
C                em
Ang minsan, naaalala
Am                         F
Di magtatagal, tayo ay liligaya

Second Stanza: (do first stanza chords)

Sige, pagpatuloy niyo lang
Unti-unting lunurin sa kasiyahan
Sige, pagpasensiyahan na lang
Mga pumipigil sa ating ligaya

(Repeat Refrain)
(Repeat Chorus)


ADLIB: Do Chorus chords

e:--------------------------------------------------------------------------------------------------|
B:--------------------------------------------------------------------------------------------------|
G:----------------------------------------------------------------------------12--------------------|
D:-10-------12-------14-------15-------14----12----12-------14-------15----------------15----14-----|
A:----10-10----10-10----10-10----10-10----10----10----10-10----10-10----10-10----10-10----10--------|
E:--------------------------------------------------------------------------------------------------|

e:--------------------------------------------------------------------|
B:----------------------------------------------------13-13s17-15~----|
G:-------12-------12-------12-------12---12b~~~-12s14-----------------|
D:-14h15----14-15----14-15----14-15-----------------------------------|
A:--------------------------------------------------------------------|
E:--------------------------------------------------------------------|

e:----------12-15-12----------------------------12-15-12-------------------------------------------|
B:----13-15----------13-15--(4x)-THEN-----13-15----------15p13h15br15-15---13----------------------|
G:-12----------------------------------12-------------------------------------14-12-----12fb~~~~---|
D:----------------------------------------------------------------------------------13-------------|
A:-------------------------------------------------------------------------------------------------|
E:-------------------------------------------------------------------------------------------------|

(Repeat Refrain)
(Repeat Chorus 2x)
(intro)


that's all........enjoy fuckers, mga gago!!!
Comments