6 Cycle Mind - Sige Chords & Tabs

 

Sige Chords & Tabs

6 Cycle Mind Chords & Tabs

Version: 2 Type: Tab 0 ratings
1 star 2 stars 3 stars 4 stars 5 stars
comments

Sige Tab

song: sige
artist: 6 cycle mind
tabber: JAMES PATRICK Z. ALIENTO
email: killer24p@yahoo.com

intro:
[ Tab from: http://www.guitartabs.cc/tabs/0-9/6_cycle_mind/sige_tab_ver_2.html ]
E----------------------------------------|
B----------------------------------------|
G--5------------5-7-7/9-8-5--------------|
D--5--7--5--7---5-7-7/9-8-5-5/7----------|
A--3--7--5--7---3-5-5/7-6-7-5/7----------|
E-----5--3--5---------------3/5----------|


E----------------------------------------|
B----------------------------------------|
G--5------------5-7-7/9-8-5--------------|
D--5--7--5--7---5-7-7/9-8-5-5/7----------|
A--3--7--5--7---3-5-5/7-6-7-5/7----------|
E-----5--3--5---------------3/5----------|

email me... if you like this tab.. "killer24p@yahoo.com" rate it...
Comments