6 Cycle Mind - Pa Ba Chords & Tabs

 

Pa Ba Chords & Tabs

6 Cycle Mind Chords & Tabs

Version: 5 Type: Tab 0 ratings
1 star 2 stars 3 stars 4 stars 5 stars
comments

Pa Ba Tab

hey peeeEps!!e2 tlaga tmang intro pramis!!

----------------------------------------------------------------------------
			     Pa Ba - 6 Cylce Mind
----------------------------------------------------------------------------
Tabbed by: rakistarulz001
Email: rowland_lim45@yahoo.com

Tuning: EADGBe

e|--------------17------------------------|
B|--14-15-14-15----14-15------------------|
G|-----------------------14-11-12-14------|
D|----------------------------------------|
A|----------------------------------------|
E|----------------------------------------|
[ Tab from: http://www.guitartabs.cc/tabs/0-9/6_cycle_mind/pa_ba_tab_ver_5.html ]
e|--------------17------------------------|
B|--14-15-14-15----15-14------------------|
G|-----------------------14-11-11---------|
D|----------------------------------------|
A|----------------------------------------|
E|----------------------------------------|

e|--------------17------------------------|
B|--14-15-14-15----14-15------------------|
G|-----------------------14-11-12-14------|
D|----------------------------------------|
A|----------------------------------------|
E|----------------------------------------|

e|--------------17-19-17~~~~--------------|
B|--14-15-14-15---------------------------|
G|----------------------------------------|
D|----------------------------------------|
A|----------------------------------------|
E|----------------------------------------|
Comments