6 Cycle Mind - Pa Ba Chords & Tabs

 

Pa Ba Chords & Tabs

6 Cycle Mind Chords & Tabs

Version: 1 Type: Bass Tab 0 ratings
1 star 2 stars 3 stars 4 stars 5 stars
comments

Pa Ba Bass Tab

intro:
-----------------------------------------------------|
-----------------------------------------------------|
--5-5-5-5----------5-5-5-5---------------------------| x2
-----------3--3--3----------3--3--33-----------------|
[ Tab from: http://www.guitartabs.cc/tabs/0-9/6_cycle_mind/pa_ba_btab.html ]
verse:
--------------------------------------------------------|
--------------------------------------------------------|
--5-5-5-5-5-5---------------5-5-5-5-5-5-5---------------|  x6
---------------3-3-3-3-3-3-----------------3-3-3-3-3-3--|

chorus:
--------------------------------------------------------|
--------------------------------------------------------|
--5-5-5-5-5-5---------------5-5-5-5-5-5-5---------------| x2
---------------3-3-3-3-3-3-----------------3-3-3-3-3-3--|
Comments