6 Cycle Mind - I Chords & Tabs

 

I Chords & Tabs

6 Cycle Mind Chords & Tabs

Version: 2 Type: Tab

I Tab

   
-------------------------------------------------------------------------------
			     I - 6 cycle mind
-------------------------------------------------------------------------------
Tabbed by: Timothy Sison
Email: tm_ot_6789@yahoo.com

Tuning: 1\2 stepdown

INTRO
		A			D
e|-----------5-------0-----|-----------5----------|
B|--------0--------0---0---|---------0------------|
G|-------------------------|----------------6h7p6-|  2x
D|-----7---------7---------|-----7----------------|
A|--0----------------------|--5-------------------|
E|-------------------------|----------------------|


VERSE
  		A		D		  C#		  D
e|-----------5-|-----------5--|----------5--|----------5----|
B|--------0----|--------------|-------------|---------------|
G|-------------|--------7-----|-------6-----|-------7-------| 2x
D|-----7-------|-----7--------|----6--------|----7----------|
A|--0----------|--5-----------|-4-----------|-5-------------|
E|-------------|--------------|-------------|---------------|

then:
[ Tab from: http://www.guitartabs.cc/tabs/0-9/6_cycle_mind/i_tab_ver_2.html ]
    Dm
e|--5---|
B|--6---|
G|--7---|
D|--7---|
A|--5---|
E|------|

CHORUS (Bm7 - C#m (3x) - Dm)

e|---------------------|
B|---------------------|
G|--4------6--3x---7---|
D|--4------6-------7---|
A|--2------4-------5---|
E|---------------------|

then:
    Dm
e|--5---|
B|--6---|
G|--7---|
D|--7---|
A|--5---|
E|------|

INTRO

VERSE

CHORUS

ADLIB (A - D - C#m - D)

e|--12-14-12-16-12-17-12-16-14-|
B|-----------------------------|
G|-----------------------------|
D|-----------------------------|
A|-----------------------------|
E|-----------------------------|

e|-12-14-12-16----19----16-17-19/21-19-17-19--19/21-19-17-19---------|
B|-------------17----17----------------------------------------------|
G|-------------------------------------------------------------------|
D|-------------------------------------------------------------------|
A|-------------------------------------------------------------------|
E|-------------------------------------------------------------------|

CHORUS 2x

END PART paulit-ulit... (A - D - C#m - D)

CHORUS

end