6 Cycle Mind - Gaya Ng Noon Chords & Tabs

 

Gaya Ng Noon Chords & Tabs

6 Cycle Mind Chords & Tabs

Version: 1 Type: Tab 0 ratings
1 star 2 stars 3 stars 4 stars 5 stars
comments

Gaya Ng Noon Tab

   
Gaya ng Noon
6 Cycle Mind
Permission to Shine

Beautiful, Cool and Cheesy all at the same time... :P

D maj. Scale...
E-----------------------------------------------------|
B-17b19--17b19r17-15-15h17-15~\-----------------------|
G--------------------------------14-------------------|
D-----------------------------------16-14-12----12/14-|
A--------------------------------------------14-------|
E-----------------------------------------------------|

E----------------------------------------|
B-----------------------------------15~\-|
G-------14----16-14--------14----16------|
D-14/16----16--------14/16----16---------|
A----------------------------------------|
E----------------------------------------|

E-17h19-17--14h15-14-----------------------------------------|
B------------------------------15-15-------15----17-15-15----|
G---------------------14-14h16-------14h16----16----------16-|
D------------------------------------------------------------|
A------------------------------------------------------------|
E------------------------------------------------------------|
[ Tab from: http://www.guitartabs.cc/tabs/0-9/6_cycle_mind/gaya_ng_noon_tab.html ]
E----------17-14---------------------------------------|
B-------17-------15----15h17h19-12-10----12-10----12~\-|
G-14-16-------------16----------------11-------11------|
D------------------------------------------------------|
A------------------------------------------------------|
E------------------------------------------------------|

~\ = vibrato then slide down to nowhere [hanggang 'di mo marinig]
b = bend
b,r = bend return
/ = slide up
h = hammer on


Dahil astig 'yung song, eto yung riff sa chorus!

E------------------------------------|
B------------------------------------|
G-12-12--11-12-11-12/14-12--11-12-11-|
D------------------------------------|
A------------------------------------|
E------------------------------------|

E------------------------------------------------|
B-------------------------------14(7x)-12(7x)----|
G-12-12--11-12-11-12/14--14(7x)---------------11-|
D------------------------------------------------|
A------------------------------------------------|
E------------------------------------------------|

E-------------------------------|
B-------------------------------|
G-12-12--11-12-11-12/14--14(7x)-|
D-------------------------------|
A-------------------------------|
E-------------------------------|
Comments