59 Times The Pain - Time To Chill Chords & Tabs

 

Time To Chill Chords & Tabs

59 Times The Pain Chords & Tabs

Version: 1 Type: Bass Tab 0 ratings
1 star 2 stars 3 stars 4 stars 5 stars
comments

Time To Chill Bass Tab

"Time To Chill" by 59 Times The Pain - Bass Tab by Shaak                            
Standard Tuning (EADG)

It's my first tab so here it is:
This is the main verse riff and it's played shuffled and in different tempo's 
during the break, in the fast part leave out some of the notes 
and in the slow part drop some of the 2's and 0's. Just listen to 
the song to get the hang of it.
[ Tab from: http://www.guitartabs.cc/tabs/0-9/59_times_the_pain/time_to_chill_btab.html ]
G-|---------------------------------------------------------------------------|
D-|----------------3--0--0-0--------------------------------------------------|
A-|-2--2-2--2-2--2-----------0--0-0-0-----------------------------------------|
E-|---------------------------------------------------------------------------|
                                                                               
    Chorus                                                                     
G-|---------------------------------------------------------------------------|
D-|---------0-----------------------------------------------------------------|
A-|-2-----0------------------2------------------------------------------------|
E-|------------------1-----0--------------------------------------------------|
                                                                               
Cool Riff. Great song. Great band.                                                                               
email any comment or to J.D.Terlingen@mail.uva.nl

P.S. If anyone's got tabs to U2's "Pride (In the name of love)" or 
No Doubt's "Don't Speak" please send them to me.



Comments