50 Cent - Wanksta Chords & Tabs

 

Wanksta Chords & Tabs

50 Cent Chords & Tabs

Version: 4 Type: Tab 0 ratings
1 star 2 stars 3 stars 4 stars 5 stars
comments

Wanksta Tab

-------------------------------------------------------------------------------
			Wanksta - 50 Cent
-------------------------------------------------------------------------------

Tabbed by: Josh Abernathy (Skynyrd 1515)

Tuning: Standard
[ Tab from: http://www.guitartabs.cc/tabs/0-9/50_cent/wanksta_tab_ver_4.html ]
e|-------14---14---------------------------------------------------|
B|--12-15--15---15-12----------------------------------------------|
G|-----------------------------------------------------------------|
D|-----------------------------------------------------------------|
A|-----------------------------------------------------------------|
E|-----------------------------------------------------------------|

e|-------14--14---12-----------------------------------------------|
B|--12-15--15--15--------------------------------------------------|
G|-----------------------------------------------------------------|
D|-----------------------------------------------------------------|
A|-----------------------------------------------------------------|
E|-----------------------------------------------------------------|
Comments