50 Cent - In Da Club Chords & Tabs

 

In Da Club Chords & Tabs

50 Cent Chords & Tabs

Version: 3 Type: Bass Tab 0 ratings
1 star 2 stars 3 stars 4 stars 5 stars
comments

In Da Club Bass Tab

(go,go,go)
G|---------------------------------------------------------------
D|---------------------------------------------------------------
A|----5---4---4--5--2--4-----------------------------------------
E|---------------------------------------------------------------
(you can find me in da club)
G|----5---4---4--5--2--4-----------------------------------------
D|---------------------------------------------------------------
A|---------------------------------------------------------------
E|---------------------------------------------------------------
(after the chrus the tone goes to the d, than to the a like this)
G|---------------------------------------------------------------
D|-----5---4-----------------------------------------------------
A|-------------4--5--2--4--5---4---------------------------------
E|---------------------------------------------------------------

Me name is mad an u r welcome
[ Tab from: http://www.guitartabs.cc/tabs/0-9/50_cent/in_da_club_btab_ver_3.html ]
Comments