50 Cent - If I Cant Chords & Tabs

 

If I Cant Chords & Tabs

50 Cent Chords & Tabs

Version: 1 Type: Tab 0 ratings
1 star 2 stars 3 stars 4 stars 5 stars
comments

If I Cant Tab

   
E----------------------------------------------------------------
B----------------------------------------------------------------
G----------------------------------------------------------------
D----------------------------------------------------------------
A----0--3-0-5-0-----0-----0---3-0-5-0-------0--------------------
E-3--------------3-----3----------------3------------------------
[ Tab from: http://www.guitartabs.cc/tabs/0-9/50_cent/if_i_cant_tab.html ]
E----------------------------------------------------------------
B----------------------------------------------------------------
G----------------------------------------------------------------
D----------------------------------------------------------------
A----0--3-0-5-0-----0-----0---3-0-5-0-------0--------------------
E-3--------------3-----3----------------3------------------------
[ Tab from: http://www.guitartabs.cc/tabs/0-9/50_cent/if_i_cant_tab.html ]
E----------------------------------------------------------------
B----------------------------------------------------------------
G----------------------------------------------------------------
D----------------------------------------------------------------
A----0--3-0-5-0-----0-----0---3-0-5-0-------0--------------------
E-3--------------3-----3----------------3------------------------
[ Tab from: http://www.guitartabs.cc/tabs/0-9/50_cent/if_i_cant_tab.html ]

repeat throughout song 

g-g-g-g-g-g-g-g-g-unitttttt
Comments