50 Cent - Get In My Car Chords & Tabs

 

Get In My Car Chords & Tabs

50 Cent Chords & Tabs

Version: 2 Type: Tab 0 ratings
1 star 2 stars 3 stars 4 stars 5 stars
comments

Get In My Car Tab

version 1:

e|--7-8-7--------------|
b|-------10-8-5--------|
g|---------------------|
d|---------------------|
a|---------------------|
E|---------------------|

version 2:
[ Tab from: http://www.guitartabs.cc/tabs/0-9/50_cent/get_in_my_car_tab_ver_2.html ]
e|--7-8-7--------------|
b|-------10-8----------|
g|-----------9---------|
d|---------------------|
a|---------------------|
E|---------------------|

version 2 is probably the fastest way to possibly play it but i started out playing
version 1. I think that playing this is much faster than playing it straight out on
one string.
Comments