50 Cent - Get In My Car Chords & Tabs

 

50 Cent Chords & Tabs

Version: 1 Type: Bass Tab 0 ratings
1 star 2 stars 3 stars 4 stars 5 stars
comments

Get In My Car Bass Tab

Bass:
1. ----------------0---------|
   -------------2-----2------|
   ----------2---------------|
   -0-0----------------------|


2. --------------------------|
   --------------------------|
   ----------2-2--2-2--------|
   -0-0----------------------|
[ Tab from: http://www.guitartabs.cc/tabs/0-9/50_cent/get_in_my_car_btab.html ]
3. ---------------------------|
   -------4--0--2--0-----0----|
   -------------------2-----2-|
   -3-3-----------------------|

Play in order: 1 2 1 3 repeat


Also, the best way to play the guitar is like this:

   -7-8-7-5--------------------|
   ---------8-5----------------|
   ----------------------------|
   ----------------------------|
   ----------------------------|
   ----------------------------|

Tip: Place your index finger at the 5th fret play the higher notes with your  ring and 
fingers.
Comments