50 Cent - Candy Shop Chords & Tabs

 

Candy Shop Chords & Tabs

50 Cent Chords & Tabs

Version: 3 Type: Tab 0 ratings
1 star 2 stars 3 stars 4 stars 5 stars
comments

Candy Shop Tab

This Tab is my first tab made for the best rapper 50 CENT!
This is a poor immitation but sounds pretty good.
Just repeat this over and over for the hole song
[ Tab from: http://www.guitartabs.cc/tabs/0-9/50_cent/candy_shop_tab_ver_3.html ]
e----------------------------------------|
B----------------------------------------|
G----------------------------------------|
D--5-5-4-4--5-5-4-4--5-5-4-4---3-4-5-7-5-|
A----------------------------------------|
E-3--------3--------3--------3-----------|

e----------------------------------------|
B----------------------------------------|
G----------------------------------------|
D--5-5-4-4--5-5-4-4--5-5-4-4---3-4-5-7-5-|
A----------------------------------------|
E-3--------3--------3--------3-----------|
Comments