50 Cent - Candy Shop Chords & Tabs

 

Candy Shop Chords & Tabs

50 Cent Chords & Tabs

Version: 1 Type: Tab 0 ratings
1 star 2 stars 3 stars 4 stars 5 stars
comments

Candy Shop Tab

-------------------------------------------------------------------------------
			     Candy Shop - 50 Cent
-------------------------------------------------------------------------------
Tabbed by:  Wes C.
Email:  WWWestonC@aol.com

Tuning: Standard Tuning

This is really simple and it sounds hot if you get the rhythm right:
[ Tab from: http://www.guitartabs.cc/tabs/0-9/50_cent/candy_shop_tab.html ]
e|---0----0-0-0-0----0----0-0-0-0----0----0-0-0-0----0----0-0-0-0-0----------|
B|---0----0-0-0-0----0----0-0-0-0----0----0-0-0-0----0----0-0-0-0-0----------|
G|---0----5-5-4-4----0----5-5-4-4----0----5-5-4-4----0----3-4-5-7-4----------|
D|---2----5-5-4-4----2----5-5-4-4----2----5-5-4-4----2----3-4-5-7-4----------|
A|---2----3-3-2-2----2----3-3-2-2----2----3-3-2-2----2----1-2-3-5-2----------|
E|---0----0-0-0-0----0----0-0-0-0----0----0-0-0-0----0----0-0-0-0-0----------|


===============================================================================
Comments