50 Cent - 21 Questions Chords & Tabs

 

21 Questions Chords & Tabs

50 Cent Chords & Tabs

Version: 7 Type: Tab 0 ratings
1 star 2 stars 3 stars 4 stars 5 stars
comments

21 Questions Tab

   
50 Cent - 21 Questions

E|--------------------------11----|
B|-----12h14-12h14-12-12h14-------|
G|--------------------------------| 
D|--------------------------------|
A|--------------------------------|
E|--------------------------------|

E|-----------------------------11---|
B|----------------------12h14-------|
G|-----11h13-11h13-11---------------| 3 Times
D|----------------------------------|
A|----------------------------------|
E|----------------------------------|
[ Tab from: http://www.guitartabs.cc/tabs/0-9/50_cent/21_questions_tab_ver_7.html ]
E|----------------------------11-----|
B|-----12h14-12h14-12-12h14----------|
G|-----------------------------------| Then you do this
D|-----------------------------------|
A|-----------------------------------|
E|-----------------------------------|

I suggest that you play with the song to play with the pattern.
The tab which i wrote for Ver. 4 was incorrect, i went back and fixed the error!
This is my first tab!
Repeat this pattern throughout whole song.

h=Hammer-on

Questions or Comments:
HaRdRoCkFaN27@aol.com
Comments