4lyn - Kisses Of The Strobelight Chords & Tabs

 

Kisses Of The Strobelight Chords & Tabs

4lyn Chords & Tabs

Version: 2 Type: Tab 0 ratings
1 star 2 stars 3 stars 4 stars 5 stars
comments

Kisses Of The Strobelight Tab

   
OK i saw the no 4Lyn tab is on this Site... Really nothing
I think that suxx.
4Lyn is a German nu metal band and they're great
This song is from the album "take it as a compliment
Here is the Song... Standart tuning

Intro:
--------------------2-0--(0)-------------------------2-0-(0)----------|
------------------------2--(2)---------------------------2-(2)--------|
----------------------------------------------------------------------|
-4--4--4-(4--4)--------------------4--4--4-(4-4)----------------------|
-4--4--4-(4--4)--------------------4--4--4-(4-4)----------------------|
-2--2--2-(2--2)-----------------0--2--2--2-(2-2)----------------------|

()-------> instead of playing it use a delay
[ Tab from: http://www.guitartabs.cc/tabs/0-9/4lyn/kisses_of_the_strobelight_tab_ver_2.html ]
Verse:
------------------2-0--(2)--------------------2-0--(2)----------------|
----------------------2---(0)---------------------2----(0)------------|
----------------------------------------------------------------------|
-4--4--4-(4-4)----------------7--7--7-(7-7)---------------------------|
-4--4--4-(4-4)----------------7--7--7-(7-7)---------------------------|
-2--2--2-(2-2)----------------5--5--5-(5-5)---------------------------|

Bride: Find the rythm yourself
"Down, Down, Down don't follow me..."
I think it's distortion :-P
------------------------------------------------------------------------|
------------------------------------------------------------------------|
------------------------------------------------------------------------|
-4--------7---------4--------7-------4--------7--------4---------7---9--|
-4--------7---------4--------7-------4--------7--------4---------7---9--|
-2--------5---------2--------5-------2--------5--------2---------5---7--|

Chorus:
I should write it clearly down but i'm lazy
B5 F#5 A5 G#5
B5 F#5 A5 B5

The Interlude plays the Bass
Ok thats it if you have any questions,
write me a mail: bacardijunkie@hotmail.com
I need the tab of Lit - I'm not sick, but I'm not well
If anybody got it, please send it to me
Comments