4lyn - Discohead Chords & Tabs

 

Discohead Chords & Tabs

4lyn Chords & Tabs

Version: 1 Type: Tab 0 ratings
1 star 2 stars 3 stars 4 stars 5 stars
comments

Discohead Tab

4lyn - DISCOHEAD

Tabbed by: chooko
Guitar: Rene Russo
e-mail: the-chooko@net.hr
 

Intro

E |-----------------------------------------------------|
H |-----------------------------------------------------|
G |-----------------------------------------------------|
D |-----2-------2--------2--------2-------2-------2-----| 
A |-2-4--4--2-4---4--2-4---4--2-4---4--2-4--4--2-4--4-2-| 
D |-----------------------------------------------------|

verse1
-------- 
guitar 1(palm muted)
E |------------------------------------------------------------------------|
H |------------------------------------------------------------------------|
G |------------------------------------------------------------------------|
D |-----2--------2--------2--------2----------4--------4---------4---4---4-| x5
A |-2-4--4--2-4---4--2-4---4--2-4---4-----4-6--6---4-6---6---4-6---6---6---|
D |------------------------------------------------------------------------|
guitar2 (w/wah)
E |---------------------------------------------------------------|
H |---------------------------------------------------------------|
G |---------------------------------------------------------------|
D |-9h11p9--9h11p9--9h11p9-xxxxx--9h11p9--9h11p9--9h11p9-xxxxx----|
A |------------------------xxxxx-------------------------xxxxx----|
D |------------------------xxxxx-------------------------xxxxx----|



REFRAIN
guitar 1 (dist.)
E |-------------------------------------------------------------------|
H |-------------------------------------------------------------------|
G |--4-4-4-4---------4-4-4-4---------4-4-4-4--------------------------|
D |--4-4-4-4--3-3-3--4-4-4-4--2-2-2--4-4-4-4--3-3-3--2-2-2--3-3-3-----|
A |--2-2-2-2--3-3-3--2-2-2-2--2-2-2--2-2-2-2--3-3-3--2-2-2--3-3-3-----|
D |-----------3-3-3-----------2-2-2-----------3-3-3--2-2-2--3-3-3-----|



verse2, refrain 2  are the same

[ Tab from: http://www.guitartabs.cc/tabs/0-9/4lyn/discohead_tab.html ]
INTERLUDE
E |---------------------------------------------------------------|
H |---------------------------------------------------------------|
G |---------------------------------------------------------------|
D |-9h11p9--9h11p9--9h11p9-xxxxx--9h11p9--9h11p9--9h11p9-xxxxx----| x2
A |------------------------xxxxx-------------------------xxxxx----|
D |------------------------xxxxx-------------------------xxxxx----|

E |------------------------------------------------------------------------|
H |------------------------------------------------------------------------|
G |------------------------------------------------------------------------|
D |-----2--------2--------2--------2----------4--------4---------4---4---4-| x2
A |-2-4--4--2-4---4--2-4---4--2-4---4-----4-6--6---4-6---6---4-6---6---6---|
D |------------------------------------------------------------------------|

after that comes the... "EEEEEE...EEEEEOOOOOOO...AAAAJIIIIII" -part wich you can't 
play with normal dropped d tuning beacause renee plays with a very low tuning. 
but it sounds actually the same

dist.
E |----------------------------------------------------------------------------|
H |----------------------------------------------------------------------------|
G |----------------------------------------------------------------------------|
D |----------------------------------------------------------------------------| x2
A |-0-2-5-2--0-2-5-2--0-2-5-2--0-2-5-2----2-4-7-4--2-4-7-4--2-4-7-4-7-4-7-4-7-4|
D |-0-2-5-2--0-2-5-2--0-2-5-2--0-2-5-2----2-4-7-4--2-4-7-4--2-4-7-4-7-4-7-4-7-4|



OUTRO
guitar 1 (dist.)
E |-------------------------------------------------------------------|
H |-------------------------------------------------------------------|
G |--4-4-4-4---------4-4-4-4---------4-4-4-4--------------------------|
D |--4-4-4-4--3-3-3--4-4-4-4--2-2-2--4-4-4-4--3-3-3--2-2-2--3-3-3-----|
A |--2-2-2-2--3-3-3--2-2-2-2--2-2-2--2-2-2-2--3-3-3--2-2-2--3-3-3-----|
D |-----------3-3-3-----------2-2-2-----------3-3-3--2-2-2--3-3-3-----|

guitar 2 (w/wah)
E |---------------------------------------------------------------|
H |---------------------------------------------------------------|
G |---------------------------------------------------------------|
D |-9h11p9--9h11p9--9h11p9-xxxxx--9h11p9--9h11p9--9h11p9-xxxxx----|
A |------------------------xxxxx-------------------------xxxxx----|
D |------------------------xxxxx-------------------------xxxxx----|

guitar 3
E |--7-7-7-7-7-7-7-7------------|
H |--x-x-x-x-x-x-x-x------------|
G |--4-4-4-4-4-4-4-4------------|
D |-----------------------------| 
A |-----------------------------|
D |-----------------------------|
Comments