4 Non Blondes - Whats Up Chords & Tabs

 

4 Non Blondes Chords & Tabs

Version: 4 Type: Tab 0 ratings
1 star 2 stars 3 stars 4 stars 5 stars
comments

Whats Up Tab

   
Whats Up - 4 Non Blondes

Here's the tab for Whats Up. The rhythm guitar part is played on an acoustic and is played all the way 
just three chords: A, A, Bm, D.

The lead guitar part is a bit harder but nothing too hard.

My Rig:
Squire Telecaster
Marshall 50 watt amp
Morley wah wah

My Favourite Bands:
Primus
Clutch
No Doubt

My Favourite guitar websites:
http://www.tabclawer.com    - good tab site
http://www.nodoubt.com   - no doubt's official site
http://www.guitarandbass.co.uk   - brilliant guitar lesson site


Rhythm Guitar

E||--0--0-0-0--0-0-0-0-0-0--0--0-|--0--0-0-0--0-0-0-0-0-0--0--0-|
B||--2--2-2-2--2-2-2-2-2-2--0--0-|--2--2-2-2--2-2-2-2-2-2--0--0-|
G||--2--2-2-2--2-2-2-2-2-2--2--2-|--2--2-2-2--2-2-2-2-2-2--2--2-|
D||--2--2-2-2--2-2-2-2-2-2--2--2-|--2--2-2-2--2-2-2-2-2-2--2--2-|
A||------------------------------|------------------------------|
E||------------------------------|------------------------------|

--2--2-2-2--2-2-2-2-2-2--0--0-|--2--2-2-2--2-2-2-2-2-3--2--0-||
--3--3-3-3--3-3-3-3-3-3--3--3-|--3--3-3-3--3-3-3-3-3-3--3--3-||
--4--4-4-4--4-4-4-4-4-4--4--4-|--2--2-2-2--2-2-2-2-2-2--2--2-||
--4--4-4-4--4-4-4-4-4-4--4--4-|--4--4-4-4--4-4-4-4-4-4--4--4-||
------------------------------|------------------------------||
------------------------------|------------------------------||


Lead guitar part
E||------------------|------------------|------------0-0--0--0-|
B||------------------|------------------|----------------------|
G||------------------|------------------|----------------------|
D||------------------|------------------|----------------------|
A||------------------|------------------|----------------------|
E||------------------|------------------|----------------------|

---------------------|---------------------------|
---------------------|---------------------------|
--2------------2-2---|------------2----------2---|
---------------------|--4----2-4-----4--2--4---4-|
---------------------|---------------------------|
---------------------|---------------------------|

------------------------|-----------------------|
----------------3---1-2-|-----------------------|
--2-----------2---2-----|--2--------------------|
------------------------|-------------0-2--0-2--|
------------------------|-----------------------|
------------------------|-----------------------|

---------------------|---------------------------|
---------------------|---------------------------|
--2------------2-2---|------------2----------2---|
---------------------|--4----2-4-----4--2--4---4-|
---------------------|---------------------------|
---------------------|---------------------------|

------------------------|-----------------------|
------------------------|-----------------------|
--2-----------2-----2---|--2--------------------|
----------------2-4---4-|-------------0-2--0-2--|
------------------------|-----------------------|
------------------------|-----------------------|

---------------------|---------------------------|
---------------------|---------------------------|
--2------------2-2---|------------2----------2---|
---------------------|--4----2-4-----4--2--4---4-|
---------------------|---------------------------|
---------------------|---------------------------|

------------------------|-----------------------|-------------------|
------------------------|-----------------------|-------------------|
--2-----------2-----2---|--2--------------------|--2----------------|
----------------2-4---4-|-------------0-2--0-2--|--2----------------|
------------------------|-----------------------|--0----------------|
------------------------|-----------------------|-------------------|

----------------------|---------------------|-------------------|
--0-----------0-------|--3-------------3----|-------------------|
----------------------|--2---------------2--|--2----------------|
--4--------------4----|--0------------------|--2----------------|
--2----------------2--|---------------------|--0----------------|
----------------------|---------------------|-------------------|

-------------------|---------------------|-------------------|
-------------------|--0-----------0------|--3----------------|
--2----------------|---------------------|--2----------------|
--2----------------|--4--------------4---|--0----------------|
--0----------------|--2------------------|-------------------|
-------------------|---------------------|-------------------|

-------------------|-------------------|-------------------|
-------------------|-------------------|--0----------------|
--2----------------|--2----------------|-------------------|
--2----------------|--2----------------|--4----------------|
--0----------------|--0----------------|--2----------------|
-------------------|-------------------|-------------------|

-------------------|-------------------|-------------------|
--3----------------|-------------------|-------------------|
--2----------------|--2----------------|--2----------------|
--0----------------|--2----------------|--2----------------|
-------------------|--0----------------|--0----------------|
-------------------|-------------------|-------------------|
[ Tab from: http://www.guitartabs.cc/tabs/0-9/4_non_blondes/whats_up_tab_ver_4.html ]
-------------------|----------------------|-------------------|
--0----------------|--3--------3---3---3--|-------------------|
-------------------|--2--------2---2---2--|--2----------------|
--4----------------|--0--------0---0---0--|--2----------------|
--2----------------|----------------------|--0----------------|
-------------------|----------------------|-------------------|

---------------------|---------------------------|
---------------------|---------------------------|
--2------------2-2---|------------2----------2---|
---------------------|--4----2-4-----4--2--4---4-|
---------------------|---------------------------|
---------------------|---------------------------|

------------------------|-----------------------|
----------------3---1-2-|-----------------------|
--2-----------2---2-----|--2--------------------|
------------------------|-------------0-2--0-2--|
------------------------|-----------------------|
------------------------|-----------------------|

---------------------|---------------------------|
---------------------|---------------------------|
--2------------2-2---|------------2----------2---|
---------------------|--4----2-4-----4--2--4---4-|
---------------------|---------------------------|
---------------------|---------------------------|

------------------------|-----------------------|
------------------------|-----------------------|
--2-----------2-----2---|--2--------------------|
----------------2-4---4-|-------------0-2--0-2--|
------------------------|-----------------------|
------------------------|-----------------------|

---------------------|---------------------------|
---------------------|---------------------------|
--2------------2-2---|------------2----------2---|
---------------------|--4----2-4-----4--2--4---4-|
---------------------|---------------------------|
---------------------|---------------------------|

------------------------|-------------------|-------------------|
------------------------|-------------------|-------------------|
--2-----------2-----2---|--2----------------|--2----------------|
----------------2-4---4-|-------------------|--2----------------|
------------------------|-------------------|--0----------------|
------------------------|-------------------|-------------------|

----------------------|---------------------|-----------------------|
--0-----------0-------|--3-------------3----|---------------3-2-----|
----------------------|--2---------------2--|--2----------------2---|
--4--------------4----|--0------------------|--2------------------2-|
--2----------------2--|---------------------|--0--------------------|
----------------------|---------------------|-----------------------|

-------------------|---------------------|--------------------|
-------------------|--0-----------0------|--3------------3----|
--2----------------|---------------------|--2------------2----|
--2----------------|--4--------------4---|--0------------0----|
--0----------------|--2------------------|--------------------|
-------------------|---------------------|--------------------|

-------------------------|-------------------------|
-------------------------|-------------------------|
--2----2----2--2-2--2-2--|--2----2----2--2-2--2-2--|
--2----2----2--2-2--2-2--|--2----2----2--2-2--2-2--|
--0----0----0--0-0--0-0--|--0----0----0--0-0--0-0--|
-------------------------|-------------------------|

-------------------------|-------------------------|
--0----0----0--0-0--0-0--|--3----3----3--3-3--3-3--|
-------------------------|--2----2----2--2-2--2-2--|
--4----4----4--4-4--4-4--|--0----0----0--0-0--0-0--|
--2----2----2--2-2--2-2--|-------------------------|
-------------------------|-------------------------|

-------------------|-------------------------|
-------------------|-------------------------|
--2----------------|--2----2----2--2-2--2-2--|
--2----------------|--2----2----2--2-2--2-2--|
--0----------------|--0----0----0--0-0--0-0--|
-------------------|-------------------------|

-------------------------|-------------------------|
--0----0----0--0-0--0-0--|--3----3----3--3-3--3-3--|
-------------------------|--2----2----2--2-2--2-2--|
--4----4----4--4-4--4-4--|--0----0----0--0-0--0-0--|
--2----2----2--2-2--2-2--|-------------------------|
-------------------------|-------------------------|

-------------------|-------------------------|
-------------------|-------------------------|
--2----------------|--2----2----2--2-2--2-2--|
--2----------------|--2----2----2--2-2--2-2--|
--0----------------|--0----0----0--0-0--0-0--|
-------------------|-------------------------|

-------------------------|-------------------------|
--0----0----0--0-0--0-0--|--3----3----3--3-3--3-3--|
-------------------------|--2----2----2--2-2--2-2--|
--4----4----4--4-4--4-4--|--0----0----0--0-0--0-0--|
--2----2----2--2-2--2-2--|-------------------------|
-------------------------|-------------------------|

-------------0-0--0--0-|---------------------|
-----------------------|---------------------|
--2--------------------|--2------------2-2---|
--2--------------------|---------------------|
--0--------------------|---------------------|
-----------------------|---------------------|

---------------------------|------------------------|
---------------------------|----------------3---1-2-|
------------2----------2---|--2-----------2---2-----|
--4----2-4-----4--2--4---4-|------------------------|
---------------------------|------------------------|
---------------------------|------------------------|

-------------------|------------------|------------------|
-------------------|------------------|------------------|
--2----------------|------------------|------------------|
-------------------|------------------|------------------|
-------------------|------------------|------------------|
-------------------|------------------|------------------|
Comments