4 Non Blondes - Whats Up Chords & Tabs

 

4 Non Blondes Chords & Tabs

Version: 3 Type: Tab 0 ratings
1 star 2 stars 3 stars 4 stars 5 stars
comments

Whats Up Tab

   
WHAT'S UP

by 4 Non Blondes
Album: Bigger, Better, Faster, More?
(c) 1992

------
INTRO:
------

[ACOUSTIC GUITAR Chord Progression: A Bm D A2]

ELECTRIC LEAD (on second progression):

E|----------------------------------------------------------------------|
B|----------------------------------------------------------------------|
G|---7/9--9--9--9-------------------------------2------------2---2~~~---|
D|------------------7~~~~~------7--7\4----2--4----4----2--4----4--------|
A|----------------------------------------------------------------------|
E|----------------------------------------------------------------------|

E|----------------------------------------------------------------------|
B|------3---------------------------------------------------------------|
G|---2----2---4/6--------------------------2~~~-------------------------|
D|----------------7~~~~~-----2--4----2--4-------------------------------|
A|----------------------------------------------------------------------|
E|----------------------------------------------------------------------|

----------------
ELECTRIC FILL 1:
----------------

E|----------------------------------------------------|
B|----------------------------------------------------|
G|--------------------2------------2---2~~~-----------|
D|---7---7\4----2--4----4----2--4----4----------------|
A|----------------------------------------------------|
E|----------------------------------------------------|

E|----------------------------------------------------|
B|---------2-----2~~~---------------------------------|
G|---2--4-----4---------------------------------------|
D|----------------------------------------------------|
A|----------------------------------------------------|
E|----------------------------------------------------|

--------
VERSE 1:   [Play with ELECTRIC FILL 1]
--------
[ Tab from: http://www.guitartabs.cc/tabs/0-9/4_non_blondes/whats_up_tab_ver_3.html ]
            A
25 years of my life and still
            Bm
Tryin' to to get up that great big hill of
            D                    A2
Hope, for a destination.
            A
I realized quickly when I knew I should
            Bm
That the world was made up of this brotherhood of
            D                    A2
Man, for whatever that means.

----------------
ELECTRIC FILL 2:
----------------

E|----5----------2----------2----------0--------------|
B|----5----------3----------3----------2--------------|
G|----6--------2-4------2---2--------2-2--------------|
D|--4/7----2-4---4----4---4-4----2-4---2--------------|
A|----------------------------------------------------|
E|----------------------------------------------------|

-------
CHORUS:    [Same CHORD progression played w/ ELECTRIC FILL 2]
-------

And so I cry sometimes, when I'm lying in bed
just to get all out, what's in my head, then
I, I am feeling, a little peculiar.
And so I wake in the morning, and I step outside
And I take a deep breath, and I get real high, and
I, scream from the top of my lungs, "What's going on?"

----------------
ELECTRIC FILL 3:
----------------

E|-5-5-5-5-5-5-5-5--2-2-2-2-2-2-2-2--2-2-2-2-2-2-2-2--0-0-0-0-0-0-0-0--|
B|-5-5-5-5-5-5-5-5--3-3-3-3-3-3-3-3--3-3-3-3-3-3-3-3--2-2-2-2-2-2-2-2--|
G|-6-6-6-6-6-6-6-6--4-4-4-4-4-4-4-4--2-2-2-2-2-2-2-2--2-2-2-2-2-2-2-2--|
D|-7-7-7-7-7-7-7-7--4-4-4-4-4-4-4-4--4-4-4-4-4-4-4-4--2-2-2-2-2-2-2-2--|
A|---------------------------------------------------------------------|
E|---------------------------------------------------------------------|

And I say, "Hey yeah yeah hey, hey yeah yeah."
I said, "Hey, what's going on?"
And I say, "Hey yeah yeah hey, hey yeah yeah."
I said, "Hey, what's going on?"

----------
INTERLUDE:
----------

Ooh ooh ooh.....   [Chord progression 2x with electric Fill 1]

--------
VERSE 2: [With electric fill 1]:
--------
           A
And I try, oh my god, do I try
   Bm          D                          A2
I try all the time, in this institution.
           A
And I pray, oh my god, do I pray
   Bm                D                      A2
I pray every single day, for a revolution.

-------
CHORUS       [AND last four lines of the chorus are repeated 2x more
-------        As above chorus]

--------
Verse 3:
--------

25 years of my life and still
Tryin' to get up that great big hill of
Hope, for a destination. . .

NOTATION:

 ~~=vibrato
 /=slide up
 \=slide down

CHORDS:

A(5th)  577655
Bm      x24432
D       xxO232
A2      xO222O
Comments