4 Non Blondes - Pleasantly Blue Chords & Tabs

 

4 Non Blondes Chords & Tabs

Version: 1 Type: Tab 1 rating
1 star 2 stars 3 stars 4 stars 5 stars
comments

Pleasantly Blue Tab

Pleasantly Blue   -  Written by L. Perry from the CD (4 Non-Blondes)
                      
                     "Bigger, Better, Faster, More"



E |--------------------^------v---|^---------------------------------|
B |--------------------2------0---|----------------------------------|
G |--------------------2------0---|1---------------------------------|
D |--------------------2------0---|2------"Ev'ry-time..."------------|
A |-------------------------------|2---------------------------------|
E |-------------------------------|----------------------------------|

E |--------------------^------v---|^-------^-------^-------^---------|
B |--------------------2------0---|-(Muddy Waters style stomp)-------|
G |--------------------2------0---|----------------------------------|
D |--------------------2------0---|----------------------------------|
A |-------------------------------|2-------2-------2-------2---------|
E |-------------------------------|0-------0-------0-------0---------|

E |---------------------v--^---v--|^---------------------------------|
B |---------------------0--2---0--|----------------------------------|
G |---------------------0--2---0--|--------------"..but don't tell me|
D |---------------------0--2---0--|----------------------------------|
A |2-------2-------2--------------|2-------2-------2-------2---------|
E |0-------0-------0--------------|0-------0-------0-------0---------|

E |"why!"-------------------------|-(Chorus)-------------------------|
B |-(drums swell here)------------|(shuffle)-------------------------|
G |1-I--I-I--I-I--I-I--I-I--I-I--I|2--2-------2--2---2-------2-------|
D |0------------------------------|2--2--4----2--2---2-------2-------|
A |2------------------------------|0--0--0----0--0---0--3^4--0-------|
E |-------------------------------|----------------------------------|

E |-------------------------------|----------------------------------|
B |-------------------------------|-(2x)-----------------------------|
G |2--2------2--2---2-------2-----|----------------------------------|
D |2--2--4---2--2---2-------2-----|----------------------------------|
A |0--0--0---0--0---0--3^4--0-----|2--2--4----2--2---2-----------2---|
E |-------------------------------|0--0--0----0--0---0----3^4----0---|

E |-------------------------------|----------------------------------|
B |4--4-------4--4---4------------|----------------------------------|
G |4--4---6---4--4---4--------4---|2--2-------2--2---2----------2----|
D |4--4---4---4--4---4--------4---|2--2--4----2--2---2----------2----|
A |---------------------5^6-------|0--0--0----0--0---0-----3^4--0----|
E |-------------------------------|----------------------------------|

E |-------------------------------|-etc; etc; starting 2nd verse-----|
B |---------------------0--2--0---|-------------------------0--2--0--|
G |---------------------0--2--0---|-------------------------0--2--0--|
D |---------------------0--2--0---|-------------------------0--2--0--|
A |2-------2-------2--------------|2--------2---------2--------------|
E |0-------0-------0--------------|0--------0---------0--------------|

E |(skip to the solo at 1:05)-----|----------------------------------|
B |-------------------------------|----------------------------------|
G |-------------------------------|12b-------------------------------|
D |14--12-------------------------|-----14~~-------------------------|
A |--E minor Pent for the solo----|----------------------------------|
E |-------------------------------|----------------------------------|

E |-------------------------------|----------------------------------|
B |-------------------------------|----------------------------------|
G |-------------------------------|12~~------------------------------|
D |14---12------------------------|----------------------------------|
A |-feel free to improvise -here--|-----------------I did------------|
E |-------------------------------|----------------------------------|
[ Tab from: http://www.guitartabs.cc/tabs/0-9/4_non_blondes/pleasantly_blue_tab.html ]
E |-------------------------------|----------------------------------|
B |-------------------------------|----------------------------------|
G |-------------------------12b---|-----------12b--------------------|
D |-----12---14---12-^14----------|-----12-(14)---14---12---14~~-----|
A |14-----------------------------|14--------------------------------|
E |-------------------------------|----------------------------------|

E |-------------------------------|----------------------------------|
B |12-----------------------------|------12--12----------------------|
G |12b----------------------------|/12---12--12----------------------|
D |------14----12---------12---14-|----------------14\---------------|
A |-----------------14------------|----------------------------------|
E |-------------------------------|----------------------------------|

E |---12------12------12-------12-|---12------12-----12-------12-----|
B |14---12------12-14---12--14---12-----12-14---12------12-14----12--|
G |14b-----14b-----14b------14b---|-14b----14b-----14b-----14b-------|
D |-------------------------------|----------------------------------|
A |--Duckwalk here if you can-----|----------lol...------------------|
E |-------------------------------|----------------------------------|

E |-------------------------------|----------------------------------|
B |14-14-14-----------------------|14-14-14--------------------------|
G |14b14b14b&r12--------12--14----|14b14b14b&r--12-----12\-----------|
D |----------------14-------------|-----------------14---------------|
A |-------------------------------|----------------------------------|
E |-------------------------------|----------------------------------|

E |-------------------------------|-----15--12-----------------------|
B |15-15-15-15-15-15-14-14-14-14-14-14--12--12---14--14--------------|
G |16b16b16b16b16-16-14-14-14-14-14-14------12---14b-14b---12b---14--|
D |-------------------------------|------------------------------14--|
A |-------------------------------|----------------------------------|
E |-------------------------------|----------------------------------|

E |-------------------------------|--------------------------------12|
B |/15-15-15-15-15-15-/15-15-15-15|15-15-/15-15-15-15-/15-15-15-15-12|
G |/16-16-16-16-16-16-/16-16-16-16-16-16-/16-16-16-16-/16-16-16-16---|
D |-------------------------------|----------------------------------|
A |-------------------------------|----------------------------------|
E |-------------------------------|----------------------------------|

E |3rd verse----------------------|Chorus----------------------------|
B |-------------------------------|----------------------------------|
G |-same as the 2nd---------------|----------------------------------|
D |-------------------------------|----------------------------------|
A |-------------------------------|----------------------------------|
E |-------------------------------|----------------------------------|

E |Fill at 1:55-------------------|15-12-14--------------------------|
B |/15-I-I-I-I-I-/15-I-I-I-I-I----|12-12-12--14-----12---------------|
G |/16-----------/16--------------|----------14b&r--12--14-----------|
D |-------------------------------|---------------------12-----------|
A |-------------------------------|----------------------------------|
E |-------------------------------|----------------------------------|

E |and at 2:02--------------------|----------------------------------|
B |---12--15-14-12---12-----------|----------------------------------|
G |14b-------------14--14-12^13---|----------------------------------|
D |-----------------------------14|-12----14~~-----------------------|
A |-------------------------------|----------------------------------|
E |-------------------------------|----------------------------------|

E |12-----------------------------|----------------------------------|
B |---15--12----------------------|------10--------------------8-----|
G |----------14--12---------------|9/-11b---11--9b&r7----7/-9----9--7|
D |------------------14--12-------|--------------------9-------------|
A |--------------------------14-12|----------------------------------|
E |-Breakdown at 2:10-------------|-----------sorta...---------------|

E |---12--------------------------|----------------------/13---12~~--|
B |-----12--15--12-------12-------|----------------------/13---12~~--|
G |14b---------------14-----15--14|-12-------12----------/14---13~~--|
D |-------------------------------|------14-------14\----------------|
A |-------------------------------|----------------------------end---|
E |-------------------------------|----------------------------------|
Comments