4 Non Blondes - Dear Mr President Chords & Tabs

 

4 Non Blondes Chords & Tabs

Version: 1 Type: Tab 0 ratings
1 star 2 stars 3 stars 4 stars 5 stars
comments

Dear Mr President Tab

4 Non Blondes - Dear Mr President

Intro
e|------------------------------------------------------------------------|
B|------------------------------------------------------------------------|
G|------------------------------------------------------------------------|
D|-8-6--8--6--------------------------------------------------------------|
A|-8-6--8--6--------------------------------------------------------------|
E|-6-4--6--4--------------------------------------------------------------|

"Im looking outside of my window..."
e|------------------------------------------------------------------------|
B|------------------------------------------------------------------------|
G|------------------------------------------------------------------------|
D|--8--8--6--8--8--6------------------------------------------------------|
A|--8--8--6--8--8--6------------------------------------------------------|
E|--6--6--4--6--6--4------------------------------------------------------|
[ Tab from: http://www.guitartabs.cc/tabs/0-9/4_non_blondes/dear_mr_president_tab.html ]
"ya ya ya such a beautiful city..."
e|------------------------------------------------------------------------|
B|------------------------------------------------------------------------|
G|------------------------------------------------------------------------|
D|--8--8--6--8--8--6------------------------------------------------------|
A|--8--8--6--8--8--6------------------------------------------------------|
E|--6--6--4--6--6--4------------------------------------------------------|

"i go to my room to turn ....."
e|------------------------------------------------------------------------|
B|----8------6------------------------------------------------------------|
G|----7-----5-------------------8-7-6-------------------------------------|
D|-8-8--6--6-------------------8-7-6-8------------------------------------|
A|-8-8--6--6-------------------6-5-4-8------------------------------------|
E|-6-6--4--4---------------------------6----------------------------------|

"one day im ganna have...."
e|------------------------------------------------------------------------|
B|------------------------------------------------------------------------|
G|------------------------------------------------------------------------|
D|-4-6--8-----------------------------------------------------------------|
A|-4-6--8-----------------------------------------------------------------|
E|-2-4--6-----------------------------------------------------------------|
Comments