3rd Strike - No Light Chords & Tabs

 

No Light Chords & Tabs

3rd Strike Chords & Tabs

Version: 1 Type: Bass Tab 0 ratings
1 star 2 stars 3 stars 4 stars 5 stars
comments

No Light Bass Tab

Song:No Light
Album:Lost Angel
Tabbed By:Tom O. (e-mail- Fuzz4494@aol.com)
Notes: this is an awesome song, and there are no bass tabs for it anywhere, so i figured it out. The guitars in the song are in drop D but i'm tabbing it for a 5 string since thats what Gabe Hammersmith plays. Standard tuning (lo to hi) BEADG
Tablature Key: h= hammer on, p= pull off,/= slide, 
~= let note ring
[ Tab from: http://www.guitartabs.cc/tabs/0-9/3rd_strike/no_light_btab.html ]
Intro/Chorus
G|-----------------------------------------|
D|--------------------|-0h2-----|----------|
A|---4-4-4---5-5-5---4|---0h2---|----5-5-5-|
E|--2-------2-------2-|------0h2|--2-------|
B|-3-------3-------3--|--(fill)-|-3--------|

Verses (some of the numbers are grouped together to *help* show the rythm there are no 1,133's just 13's)
G|-----------------------------------
D|-----------------------------------
A|----------16p15-----------15-15-16- continued below
E|-1313--13------16-1313-13----------
B|-----------------------------------

G|-----------------------------------|
D|-----------------------------------|
A|-----16---------------16-----------|
E|------------16/17------------16----|
B|-1414----14-------1414----14----14-|
     |---|
Comments