3 Feet Smaller - Reason Unknown Chords & Tabs

 

Reason Unknown Chords & Tabs

3 Feet Smaller Chords & Tabs

Version: 1 Type: Tab

Reason Unknown Tab

Band: 3 feet Smaller
Song: Reason Unknown
Album: 3rd Strike

Skater2000@aon.at
---------------------------------------------------------

Intro/Verse:


Guitar 1:
-----------------------|
-----------------------|
-----------------------|
-4----6-----7-----6----|
-4-5x-6-5x--7-5x--6----|5x
-2----4-----5-----4----|

Guitar 2: (comes in 2x)
---------------------------|
---------------------------|
-11-----9----6-----4-------|
-X--5x--X-5x-X-5x--X--5x---|
-9------7----4-----2-------|
---------------------------|

Chorus: (I should have known, I should have known..)

------------------------|
------------------------|
---5----4-2-------------|
-2-5-5--4-2--5-4--2-----|
-2-3-5--2-0--5-4--2-----|
-0---3-------3-2--0-----|


Bridge:

Guitar 1:
[ Tab from: http://www.guitartabs.cc/tabs/0-9/3_feet_smaller/reason_unknown_tab.html ]
Repeat 2x              Repeat 2x
-2-----------2-----|---2---2---2-----|
---3----------3----|----3-3-3-3-3----|
-----2---------2---|-----2---2-------|
-------------------|-----------------|
-------------------|-----------------|
-------------------|-----------------|

Guitar 2:

---------------------------------------|
---------------------------------------|
---------------------------------------|
---------------------------------------| Repeat as needed
---------------------3-3-3-3-3-3-3-3-3-|
-0-0-0-0-0-0-0-0-0-0-------------------|
 . . . . . . . . . . . . . . . . . . .
p.m.


Outro:

---------------------------------------|
---------------------------------------|
-------------5-5-5-5-5-5-5--4~---------|
-2-2-2-2-2-2-5-5-5-5-5-5-5--4~---------|
-2-2-2-2-2-2-3-3-3-3-3-3-3--2~---------|
-0-0-0-0-0-0---------------------------|


__________________________________________________________


Song Order:

Intro 4x
Verse 8x
Chorus 2x
Intro 2x
Verse 8x
Chorus 2x
Bridge (Guitar 2 only) 2x
Bridge
Chorus 4x
Outro