3 Doors Down - When I'm Gone Chords & Tabs

 

When I'm Gone Chords & Tabs

3 Doors Down Chords & Tabs

Version: 9 Type: Tab 0 ratings
1 star 2 stars 3 stars 4 stars 5 stars
comments

When I'm Gone Tab

			
====================================================================
		When I'm Gone Last Solo's
====================================================================

By: Sam


I tried to search the net for this song solos, i found some but they
didn't even sound close :S so i tried my best to figure it out...
if you played it correctly it gonna sound the same as the orginal..
by the way this is my first tab ever... i've been playing guitar
for about 4 months... so take it easy guyz and don't be harsh in
comments, but yea i need honsest comments and rating :) but hey
not becuase i've been playing for 4 months say it's bad, no trust
me i play pretty good :P

lsn dudes, your job is to figure out the timing and speed, very
easy if you heared the solo's couple of times... have fun :D


~ = vibrato (this is all you gonna need)


Here is the first 2 solo's (the small ones):
[ Tab from: http://www.guitartabs.cc/tabs/0-9/3_doors_down/when_im_gone_tab_ver_9.html ]
E||-----------------------|-----------------------||
B||-----------------------|-----------------------||
G||-----------------------|-----------------------||
D||--7~~---7-8-10--10~---7|-0-5~------------------||
A||-----------------------|-----------------------||
E||-----------------------|-----------------------||



Here is the last solo (the long one):
                                                                        
E||----------------------|----------------------|----------------------|
B||----------------------|----------------------|----------------------|
G||----------------------|----------------------|----------------------|
D||--7-5-7-5-7~----7-5---|----------------------|-------12-10-12-7~---9|
A||--------------------7-|-6-5------------------|----------------------|
E||----------------------|---8-3-3-3~---5-3-5-3-|-5~-------------------|


----------------------|-------------------------|-----------------------|
----------------------|-------------------------|-----------------------|
----------------------|-------------------------|-----------------------|
-9-10-7~-9-9-10-7~----|-12-12-14-14--14-14-14-14|-17-17-17-17-17-19-19--|
----------------------|-------------------------|-----------------------|
----------------------|-------------------------|-----------------------|


----------------------||
----------22~~~~------||
-------21-------------||
-19-19----------------||
----------------------||
----------------------||



Hope you enjoyed it :)
Comments