3 Doors Down - When I'm Gone Chords & Tabs

 

When I'm Gone Chords & Tabs

3 Doors Down Chords & Tabs

Version: 6 Type: Tab 0 ratings
1 star 2 stars 3 stars 4 stars 5 stars
comments

When I'm Gone Tab

   
This is the fresh new single from 3 Doors Down. I first heard this on the radio
and just had to learn to play it. So I took a weekend and tabbed it out. I tabbed
out both guitars in this song. The guitars line up with each other.  So for
example, if Guitar One’s tab line extends farther then Guitar Two’s tab line,
then that means that Guitar One keeps playing the line but Guitar Two tacet(or
stops playing).  I hope you like the tab. Enjoy!

Email me at GuitarTabber@aol.com with any comments or suggestions...or just to
say thanks.

3 Doors Down
When I'm Gone
Away From The Sun
Transcribed by Bballer AI3

h  = hammer on
p  = pull off
/  = slide up neck to indicated note
\  = slide down neck to indicated note
M  = palm mute
b  = bend string to the indicated pitch
ub = bend both notes to the indicated pitch

Intro:
Guitar One
e|----------------------------------------------------------------------|
B|----0h1---1p0-0h1----------0h1----3-----0h1---3---1---0------0h1---3--|
G|---2---2-----2---2--------0----0--0----2---2---2---2---0----0---0--0--|
D|--2-----2---------2------2-----0--0---2-----2---2---2------2-------0--|
A|-0----------------------3---------2--0--------------------3--------2--|
E|----------------------------------3--------------------------------3--|

Guitar Two
e|----------------------------------------------------------------------|
B|---------------------------5------5-----------------------------------|
G|------------------4h5-5/7---------------5p4-4-----5/7-----5--------4--|
D|-------------------------------------------5--------------------------|
A|----------------------------------------------------------------------|
E|----------------------------------------------------------------------|
 

Verse 1:
Guitar One
e|------|-0--0-----------------|
B|-1p0--|-0---0----------1--3--|
G|----0-|-2----2---------0--0--|
D|------|-2-------------2---0--|
A|------|-0--------0-2-3----2--|
E|------|-------------------3--|
  ^^^^^^
Play this part first time in verse only

Guitar Two
e|------|
B|------|
G|------|
D|-7----|--Then play -Asus2--C--G-
A|------|
E|------|
  ^^^^^^
Play this part first time in verse only

Riff A:
Guitar One
e|--------0-------------------0------------|
B|----0h1-3-----0h1-0-----0h1-3-----0h1----|
G|---2---------2----2----2---------2---2---|
D|--2---------2---------2---------2-----2--|
A|-0---------0---------0---------0---------|
E|-----------------------------------------|

Chorus:
Guitar One
e|--------|-------------------------------------------------------|
B|--------|-------------------------------------------------------|
G|-4/5\4--|-2--2-----2--2-----4/5-----/7--7--------------4/5\4----|
D|-4/5\4--|-2--2-----2--2-----4/5-----/7--7-----5--5-----4/5\4----|
A|-2/3\2--|-0--0-0-0-0--0-0-0-2/3-2---/5--5-----5--5-----2/3\2----|
E|------0-|------M-M------M-M------0--------0-0-3--3-0-0-------0--|
        M                         MM        M M      M M       M
  ^^^^^^^^
Play this part first time in chorus only

Interlude:
Guitar One
e|-------------------------|
B|-------------------------|
G|-2---------5--5----------|
D|-2---------5--5-------5--|-x2
A|-0----0-2--3--3-------5--|
E|----------------0--0--3--|
                  M  M

Guitar Two
e|------------------------------------------------------------|
B|----------------------8-------5-----------------------------|
G|--------5v------------7ub(1)--------------5v----------------|
D|--5h7-7---------------------------7v-5h7-7---7p5--5v--------|
A|------------------------------------------------7----7p5----|
E|---------------------------------------------------------8--|


Verse 2:
Guitar One                                  x16
e|-------------------------0---------3-3---|-3-|-----------|
B|-----------1--3----------1--3---0-----5--|-5-|-----5-----|
G|--2--------0--0----------2----0----------|---|-----------|
D|--2-------2---0----------2---------------|---|--7-----7--|
A|--0--0-2-3----2----------0---------------|---|-----------|
E|--------------3--------------------------|---|-----------|
[ Tab from: http://www.guitartabs.cc/tabs/0-9/3_doors_down/when_im_gone_tab_ver_6.html ]
Guitar Two
e|-----------------0-----|
B|-------------------0-3-|
G|-----------------------|----Repeat Verse 1 until here----|
D|-----------------------|
A|-----------------------|
E|-----------------------|

Verse 2 Cont.:
Guitar One
e|-0---------------------------------------------|
B|-0--------------------------1--3---------------|
G|-2--------------------------0--0------4/5\4----|
D|-2-------------------------2---0------4/5\4----|
A|-0--------------------0-2-3----2------2/3\2----|
E|-------------------------------3----0-------0--|
                                      M       M

Guitar Two
e|-5----5-5---5-5---5-5------|
B|--5--8-----8-----8----8-8--|
G|----------5-----5----------|
D|---------------------------|
A|---------------------------|
E|---------------------------|


(Chorus)


Bridge:
Guitar One
e|------------------------------------------------------------|
B|------------------------------------------------------------|
G|-2-----4/5-----5/7-----7/9\7---2-----4/5-----5/7------------|
D|-2-----4/5-----5/7-----7/9\7---2-----4/5-----5/7------------|
A|-0-0-0-2/3-----3/5-----5/7\5---0-0-0-2/3-----3/5-----5-4-5--|
E|---M-M-2/3-0-0-3/5-0-0-5/7\5-0---M-M-2/3-0-0-3/5-0-0-3-2-3--|
             M M	   M M	             M M     M M M M M

Riff B:
Guitar One
e|---------------------------|
B|---------------------------|
G|-2-------------------------|
D|-2-let ring----------------|
A|-0-------------------------|
E|---------------------------|

Guitar Two
e|----------0----------------|
B|----0h1-3---3-------0h1-0--|
G|---2---------2----2-----2--|
D|--2--------------2---------|
A|-0-------------0-----------|
E|---------------------------|

Solo: (Guitar Two plays Chorus over Solo)
Guitar One
e|---------------------------------------------------------------|
B|-5b(1/4)-------------------------------------------------------|
G|-5b(1/4)-------------------------------------------------------|
D|---------7h5-7v--7v--7v--7v--7h5--5----------------------------|
A|---------------------------------7-7-6-5b(1/4)--6-6-5----------|
E|------------------------------------------------------8-8-8-5--|

Solo Cont.:
Guitar One
e|-----------------------------------------------------------------|
B|-----------------------------------------------------------------|
G|----------------------------------5b(1/4)------------5b(1/4)-----|
D|----------------------------7-7-7---------7-7--7-7-5--------0-0--|
A|-----------------------------------------------------------------|
E|-5v--5-8-5-5v--3-5-3-5-0-0---------------------------------------|

Solo Cont.:
Guitar One                                   x6         x5      x4
e|----------------------------------------|------|---|-------|-------|
B|--------------------5-5-----------8-8-8-|5-----|-\-|-8-----|12-----|
G|-4---4-5-----4------5-5--7b(1/2)--7-7-7-|7ub(1)|-\-|10ub(1)|14ub(1)|
D|---7-----0-0---7-7\---------------------|------|---|-------|-------|
A|----------------------------------------|------|---|-------|-------|
E|----------------------------------------|------|---|-------|-------|

Solo Cont.:
Guitar One      x3
e|----------|-------|-17---|
B|----------|17-----|-17---|
G|----------|19ub(1)|------|
D|----------|-------|------|
A|----------|-------|------|
E|----------|-------|------|


(Chorus)


Outro: 
Guitar One
e|-----------------------------------------|-----------------|
B|-5---------------------------------------|-----------------|
G|---4-----4----5--4---------5--4--5----5--|-4---------------|
D|-------7---7---------7---5---------------|----------7---7--|
A|-----------------------------------------|-----------------|
E|-----------------------------------------|-----------------|

Guitar Two
e|-----------------------------------------|-----------------|
B|-----------------------------------------|-----------------|
G|-----------------------------------------|-5--5------------|
D|--Play Guitar One of Interlude until here|-5--5-----5------|
A|-----------------------------------------|-3--3-----5------|
E|-----------------------------------------|------0-0-3------|
                                                  M M
Comments