3 Doors Down - When I'm Gone Chords & Tabs

 

When I'm Gone Chords & Tabs

3 Doors Down Chords & Tabs

Version: 4 Type: Tab 0 ratings
1 star 2 stars 3 stars 4 stars 5 stars
comments

When I'm Gone Tab

   
------------------------------------------------------------------
	           When I'm Gone - 3 Doors Down
------------------------------------------------------------------

By: Waylon "Korn Dogg" Wigington

*this is my first tab and i just got the song today, so be gentle with the
comments!  peece easy & stay greezy, my neezy!!!

*this song is played with 2 guitars but i did my best to squeeze it all onto one ;)

Chords for Verse: Am & G

Play 1X for Intro and 2X for Verse
e|------------------------------------------------------------------|
B|-----------0h1-----1p0---0h1--------0h1-----1p0--0----------------|
G|----------------2------2-----------------2-------2----------------|
D|-----2---------------------------2---------------2----------------|
A|--0---------------------------0------------------0----------------|
E|------------------------------------------------------------------|

e|------------------------------------------------------------------|
B|-----------0h1---1h3---3p1----------1h3----3p1---1----------------|
G|---------------2-----2-------------------2-------2----------------|
D|-----2--------------------------2----------------2----------------|
A|--0---------------------------0------------------3----------------|
E|------------------------------------------------------------------|
[ Tab from: http://www.guitartabs.cc/tabs/0-9/3_doors_down/when_im_gone_tab_ver_4.html ]
...or maybe I'm just blind....
e|------------------------------------------------------------------|
B|----------0h1----3------------0h1----1----------------------------|
G|------------------------------------------------------------------|
D|-------2--------------------2-------------------------------------|
A|----0--------------------0----------------------------------------|
E|------------------------------------------------------------------|

Chords for Chorus: A5, D5, & G5

Chorus
e|------------------------------------------------------------------|
B|------------------------------------------------------------------|
G|------------------------------------------7-X-X-X-----------------|
D|--------------7-X-X-X-7-X-X-X-------------7-X-X-X-5-X-X-X---------|
A|---2h3--2p0---7-X-X-X-7-X-X-X---2h3--2p0--5-X-X-X-5-X-X-X---------|
E|--------------5-X-X-X-5-X-X-X---------------------3-X-X-X---------|

e|------------------------------------------------------------------|
B|------------------------------------------------------------------|
G|------------------------------------------------------------------|
D|----7*----7/9/10-X-X-5*-------------------------------------------|
A|----7*----7/9/10-X-X-5*-------------------------------------------|
E|----5*----5/7/8--X-X-3*-------------------------------------------|

After 2nd Chorus
e|------------------------------------------------------------------|
B|------------------------------------------------------------------|
G|------------------------------------------------------------------|
D|---5/7-X--7/7-X-9/10-X--------------------------------------------|
A|---5/7-X--7/7-X-9/10-X--2h3--2p0----------------------------------|
E|---3/5-X--5/7-X-7/8--X--------------------------------------------|
Comments