3 Doors Down - When I'm Gone Chords & Tabs

 

When I'm Gone Chords & Tabs

3 Doors Down Chords & Tabs

Version: 2 Type: Bass Tab 0 ratings
1 star 2 stars 3 stars 4 stars 5 stars
comments

When I'm Gone Bass Tab

   
* Hold Note
/ Slide Down
h Hammer-On

Bass Intro when you come in with the drums after the guitar intro

G:-------------
D:-------------
A:----5h4-2h3-0
E:-4h5---------

Verse:

G:------------------
D:------------------
A:-0*---123*------3-       
E:----------3*-0h3-0
This is the same for all verse's.

Pre Chorus:

G:--------------
D:--------------
A:-0*-3*--0*-3-2   
E:------3-------

Chorus:

G:----------------------
D:----------------------
A:-0*-0*-2-3-2-5---2-3-2    
E:---------------3------
All choruses are the same.

Bridge:
[ Tab from: http://www.guitartabs.cc/tabs/0-9/3_doors_down/when_im_gone_btab_ver_2.html ]
G:------------------------------------
D:------------------------------------
A:-0-2/3-3/5-5/7/5/7-0-2/3-3/5-5-3-2-0    
E:------------------------------------
You play the bridge twice, but at the end of the second you hold "0" untill
drums do a roll back into the song where the guitar begins its solo.

The Outro is just the same as the Verse. At the end hold A:-0- and turn
down volume to close out.

Intro X1
Verse X4
Pre Chorus X4
Chorus X4
Verse X4
Chorus X4
Bridge X2
Guitar solo(play chorus) X4
Chorus X4
Outro

I think fixed a tab I found on here, this sounds right to me.  This is my first 
tab, so if it ain’t up to snuff… bugger off!!!

Groo the Wanderer
Comments