3 Doors Down - When I M Gone Chords & Tabs

 

When I M Gone Chords & Tabs

3 Doors Down Chords & Tabs

Version: 2 Type: Tab 0 ratings
1 star 2 stars 3 stars 4 stars 5 stars
comments

When I M Gone Tab

   
When I'm Gone
Tabbed by Jake Dubberstein

here it goes.

h=hammer on
p=pull off
pm=palm mute


Intro
         Am                      Am
|--------------------------------------------------
|--------0h1----1p0---0h1--------0h1----1p0---0h1---
|------2-----2------2----------2-----2------2------
|----2--------2--------------2--------2-----------
|--0-----------------------0----------------------
|-------------------------------------------------
              C            G
|--------------------------3-----------------
|------------0h1-----------3------------------
|----------0-----0---------0---------------
|--------2--------2--------0-----------------
|------3-------------------2----------------
|--------------------------3----------------(x4)

Verse

Am C G

Tnterlude/Pre-Chorus
[ Tab from: http://www.guitartabs.cc/tabs/0-9/3_doors_down/when_i_m_gone_tab_ver_2.html ]
          Am                    Am
|----------------------------------------------------------
|--------0h1----1p0---0h1-------0h1----1p0---0h1-----------
|------2-----2------2---------2-----2------2---------------
|----2--------2-------------2--------2---------------------
|--0----------------------0--------------------------------
|-------------------------------------------------------(x2)


Chorus(w/Distortion)


      A5           B5 C5 B5 C5   G5
|-------------------------------------------------
|-------------------------------------------------
|------------------4--5--4--5---------------------
|-----7-7-7-7-7----4--5--4--5----5-5-5-5-5--------
|-----7-7-7-7-7----2--3--2--3----5-5-5-5-5--------
|-----5-5-5-5-5------------------3-3-3-3-3--------
         pm..                       pm..

Well, that's it. the end. Enjoy!
Comments