3 Doors Down - This Time Chords & Tabs

 

This Time Chords & Tabs

3 Doors Down Chords & Tabs

Version: 2 Type: Tab 0 ratings
1 star 2 stars 3 stars 4 stars 5 stars
comments

This Time Tab

   
Song:   This Time(Hidden Track 12)
Artist: 3 Doors Down
Album:  Away From The Sun
Tabber: Mark Lavalle
E-mail: mark_des22@yahoo.com
Timing Included

It took me a long time to get the timing for the lyrics with the
notes. And alot of playing it over and over and over again. And now
that I've finished tabbing it, I'm sick of hearing it. So everybody
be happy with this one. It's a very good and very easy song to play.

h : hammer on 	
p : pull off
/ : slide up
b : bend
v : vibrato
\ : slide down
d : down strum
u : up strum


e|----------------8-------------------------------8---------------|
B|--------8-----------8-------------------8-----------8-------8---|
G|----8-------8-----------8-----------8-------------------8-------|
D|10--------------------------10--------------10------------------|
A|----------------------------------------------------------------|
E|----------------------------------------------------------------|

e|----------------8-------------------------------8---------------|
B|--------8-----------8-------------------8-----------8-------8---|
G|----8-------8-----------8-----------8-------8-----------8-------|
D|9---------------------------9-----------------------------------|
A|----------------------------------------------------------------|
E|----------------------------------------------------------------|

e|----------------8-------------------------------8---------------|
B|--------8-----------8-------------------8-----------8-------8---|
G|----8-------8-----------8-----------8-------------------8-------|
D|10--------------------------10--------------10------------------|
A|----------------------------------------------------------------|
E|----------------------------------------------------------------|

e|----------------8-------------------------------8---------------|
B|--------8-----------8-------------------8-----------8-------8---|
G|----8-------8-----------8-----------8-------8-----------8-------|
D|9---------------------------9-----------------------------------|
A|----------------------------------------------------------------|
E|----------------------------------------------------------------|
 |                                                        Unsure__|

e|----------------8-------------------------------8---------------|
B|--------8-----------8-------------------8-----------8-------8---|
G|----8-------8-----------8-----------8-------------------8-------|
D|10--------------------------10--------------10------------------|
A|----------------------------------------------------------------|
E|----------------------------------------------------------------|
 |________________________                            Of yourself_|

e|----------------8-------------------------------8---------------|
B|--------8-----------8-------------------8-----------8-------8---|
G|----8-------8-----------8-----------8-------8-----------8-------|
D|9---------------------------9-----------------------------------|
A|----------------------------------------------------------------|
E|----------------------------------------------------------------|
 |________________________                You stand    divid   -  |

e|----------------8-------------------------------8---------------|
B|--------8-----------8-------------------8-----------8-------8---|
G|----8-------8-----------8-----------8-------------------8-------|
D|10--------------------------10--------------10------------------|
A|----------------------------------------------------------------|
E|----------------------------------------------------------------|
 | -  ed      now_________                            Which  road_|

e|----------------8-------------------------------8---------------|
B|--------8-----------8-------------------8-----------8-------8---|
G|----8-------8-----------8-----------8-------8-----------8-------|
D|9---------------------------9-----------------------------------|
A|----------------------------------------------------------------|
E|----------------------------------------------------------------|
 |___ will    lead    you     there_______              Last time_|

e|----------------8-------------------------------8---------------|
B|--------8-----------8-------------------8-----------8-------8---|
G|----8-------8-----------8-----------8-------------------8-------|
D|10--------------------------10--------------10------------------|
A|----------------------------------------------------------------|
E|----------------------------------------------------------------|
 |________________________                You fell    in      you |

e|----------------8---------------10----------11----------12/14---|
B|--------8-----------8---------------8-----------8---------------|
G|----8-------8-----------8---------------8-----------8-----------|
D|9---------------------------9-----------------------------------|
A|----------------------------------------------------------------|
E|----------------------------------------------------------------|
 |    hit     hard                        Your wounds have healed |

e|----------------8-------------------------------8---------------|
B|--------8-----------8-------------------8-----------8-------8---|
G|----8-------8-----------8-----------8-------------------8-------|
D|10--------------------------10--------------10------------------|
A|----------------------------------------------------------------|
E|----------------------------------------------------------------|
 |    by      now_________                But you     still   see |

e|----------------8-------------------------------8---------------|
B|--------8-----------8-------------------8-----------8-------8---|
G|----8-------8-----------8-----------8-------8-----------8-------|
D|9---------------------------9-----------------------------------|
A|----------------------------------------------------------------|
E|----------------------------------------------------------------|
 |    your    scars___________yeah                    But its not_|

e|----------------------------------------------------------------|
B|----------------------------------------------------------------|
G|5---5---5---x---5---------------5---5---x---x---5---------------|
D|5---5---5---x---5---------------5---5---x---x---5---------------|
A|3---3---3---x---3---------------3---3---x---x---3---------------|
E|----------------------------------------------------------------|
 |________                                    The way it      used|

e|----------------------------------------------------------------|
B|----------------------------------------------------------------|
G|4---4---4---4---4---------------4---4---x---x---4---------------|
D|4---4---4---4---4---------------4---4---x---x---4---------------|
A|2---2---2---2---2---------------2---2---x---x---2---------------|
E|----------------------------------------------------------------|
 |    to      be      right   now             You've come so  far_|

e|----------------------------------------------------------------|
B|----------------------------------------------------------------|
G|5---5---5---x---5---------------5---5---x---x---5---------------|
D|5---5---5---x---5---------------5---5---x---x---5---------------|
A|3---3---3---x---3---------------3---3---x---x---3---------------|
E|----------------------------------------------------------------|
 |________                                    To just let this go_|

e|----------------------------------------------------------------|
B|----------------------------------------------------------------|
G|4---4---4---4---4---------------4---4---x---x---4---------------|
D|4---4---4---4---4---------------4---4---x---x---4---------------|
A|2---2---2---2---2---------------2---2---x---x---2---------------|
E|----------------------------------------------------------------|
 |_______ My  friend          Don't   go      out     the         |

e|----------------------------------------------------------------|
B|----------------------------------------------------------------|
G|7-----------8---------------------------------------------------|
D|8-----------8---------------------------------------------------|
A|6-----------6---------------------------------------------------|
E|----------------------------------------------------------------|
 |same        way         you     did the     last    time, you'll|

e|----------------------------------------------------------------|
B|----------------------------------------------------------------|
G|5---------------------------------------------------------------|
D|5---------------------------------------------------------------|
A|3---------------------------------------------------------------|
E|----------------------------------------------------------------|
 |break                      when you fall.   Don't   make    the |

e|----------------------------------------------------------------|
B|----------------------------------------------------------------|
G|----------------------------------------------------------------|
D|3---------------------------------------------------------------|
A|3---------------------------------------------------------------|
E|1---------------------------------------------------------------|
 |same  mistakes               you did all     over        You've |

e|----------------------------------------------------------------|
B|----------------------------------------------------------------|
G|----------------------------------------------------------------|
D|6----6----6-----6-----------------------------------------------|
A|6----6----6-----6-----------------------------------------------|
E|4----4----4-----4-----------------------------------------------|
 |got  to   be  - lieve in  yourself                 this         |

e|----------------8-------------------------------8---------------|
B|--------8-----------8-------------------8-----------8-------8---|
G|----8-------8-----------8-----------8-------------------8-------|
D|10--------------------------10--------------10------------------|
A|----------------------------------------------------------------|
E|----------------------------------------------------------------|
 |time____________________                                        |

e|----------------8-------------------------------8---------------|
B|--------8-----------8-------------------8-----------8-------8---|
G|----8-------8-----------8-----------8-------8-----------8-------|
D|9---------------------------9-----------------------------------|
A|----------------------------------------------------------------|
E|----------------------------------------------------------------|

e|----------------8-------------------------------8---------------|
B|--------8-----------8-------------------8-----------8-------8---|
G|----8-------8-----------8-----------8-------------------8-------|
D|10--------------------------10--------------10------------------|
A|----------------------------------------------------------------|
E|----------------------------------------------------------------|

e|----------------8---------------10----------11----------12/14---|
B|--------8-----------8---------------8-----------8---------------|
G|----8-------8-----------8---------------8-----------8-----------|
D|9---------------------------9-----------------------------------|
A|----------------------------------------------------------------|
E|----------------------------------------------------------------|
 |                                                        Live on_|

e|----------------8-------------------------------8---------------|
B|--------8-----------8-------------------8-----------8-------8---|
G|----8-------8-----------8-----------8-------------------8-------|
D|10--------------------------10--------------10------------------|
A|----------------------------------------------------------------|
E|----------------------------------------------------------------|
 |________________________                    Live    it      up  |

e|----------------8-------------------------------8---------------|
B|--------8-----------8-------------------8-----------8-------8---|
G|----8-------8-----------8-----------8-------8-----------8-------|
D|9---------------------------9-----------------------------------|
A|----------------------------------------------------------------|
E|----------------------------------------------------------------|
 |    to  -   day_________                Life's      your    cup |

e|----------------8-------------------------------8---------------|
B|--------8-----------8-------------------8-----------8-------8---|
G|----8-------8-----------8-----------8-------------------8-------|
D|10--------------------------10--------------10------------------|
A|----------------------------------------------------------------|
E|----------------------------------------------------------------|
 |                                        So  drink   it      up  |

e|----------------8-------------------------------8---------------|
B|--------8-----------8-------------------8-----------8-------8---|
G|----8-------8-----------8-----------8-------8-----------8-------|
D|9---------------------------9-----------------------------------|
A|----------------------------------------------------------------|
E|----------------------------------------------------------------|
 |    I       say             yeah.                   Say its mine|

e|----------------------------------------------------------------|
B|----------------------------------------------------------------|
G|5---5---5---x---5---------------5---5---x---x---5---------------|
D|5---5---5---x---5---------------5---5---x---x---5---------------|
A|3---3---3---x---3---------------3---3---x---x---3---------------|
E|----------------------------------------------------------------|
 |________                                    So  give  it    all |

e|----------------------------------------------------------------|
B|----------------------------------------------------------------|
G|4---4---4---4---4---------------4---4---x---x---4---------------|
D|4---4---4---4---4---------------4---4---x---x---4---------------|
A|2---2---2---2---2---------------2---2---x---x---2---------------|
E|----------------------------------------------------------------|
 |    up      to      me      now             And walk that line__|

e|----------------------------------------------------------------|
B|----------------------------------------------------------------|
G|5---5---5---x---5---------------5---5---x---x---5---------------|
D|5---5---5---x---5---------------5---5---x---x---5---------------|
A|3---3---3---x---3---------------3---3---x---x---3---------------|
E|----------------------------------------------------------------|
 |________                                   And dont let this go_|
[ Tab from: http://www.guitartabs.cc/tabs/0-9/3_doors_down/this_time_tab_ver_2.html ]
e|----------------------------------------------------------------|
B|----------------------------------------------------------------|
G|4---4---4---4---4---------------4---4---x---x---4---------------|
D|4---4---4---4---4---------------4---4---x---x---4---------------|
A|2---2---2---2---2---------------2---2---x---x---2---------------|
E|----------------------------------------------------------------|
 |_______ My  friend          Don't   go      out     the         |

e|----------------------------------------------------------------|
B|----------------------------------------------------------------|
G|7-----------8---------------------------------------------------|
D|8-----------8---------------------------------------------------|
A|6-----------6---------------------------------------------------|
E|----------------------------------------------------------------|
 |same        way         you     did the     last    time, you'll|

e|----------------------------------------------------------------|
B|----------------------------------------------------------------|
G|5---------------------------------------------------------------|
D|5---------------------------------------------------------------|
A|3---------------------------------------------------------------|
E|----------------------------------------------------------------|
 |break                      when you fall.   Don't   make    the |

e|----------------------------------------------------------------|
B|----------------------------------------------------------------|
G|----------------------------------------------------------------|
D|3---------------------------------------------------------------|
A|3---------------------------------------------------------------|
E|1---------------------------------------------------------------|
 |same  mistakes               you did all     over        You've |

e|----------------------------------------------------------------|
B|----------------------------------------------------------------|
G|----------------------------------------------------------------|
D|6----6----6-----6-----------------------------------------------|
A|6----6----6-----6-----------------------------------------------|
E|4----4----4-----4-----------------------------------------------|
 |got  to   be  - lieve in  yourself                 this         |

e|----------------------------------------------------------------|
B|8----------b9--r8-----------------------------------------------|
G|--------------------10v-----------------------------------------|
D|----------------------------------------------------------------|
A|----------------------------------------------------------------|
E|----------------------------------------------------------------|
 |time____________________________________                        |

e|----------------------------------------------------------------|
B|8--b9--r8--b9--r8------/11--------------------------------------|
G|--------------------------------10v-----------------------------|
D|----------------------------------------------------------------|
A|----------------------------------------------------------------|
E|----------------------------------------------------------------|
 |                                                        This    |

e|----------------------------------------------------------------|
B|8----------b9--r8-----------------------------------------------|
G|--------------------10v-----------------------------------------|
D|----------------------------------------------------------------|
A|----------------------------------------------------------------|
E|----------------------------------------------------------------|
 |time____________________________________________                |

e|--------------------------------14v-----------------------------|
B|8------b9--r8----------/12--------------------------------------|
G|----------------------------------------------------------------|
D|----------------------------------------------------------------|
A|----------------------------------------------------------------|
E|----------------------------------------------------------------|

e|----------------8-------------------------------8---------------|
B|--------8-----------8-------------------8-----------8-------8---|
G|----8-------8-----------8-----------8-------------------8-------|
D|10--------------------------10--------------10------------------|
A|----------------------------------------------------------------|
E|----------------------------------------------------------------|

e|----------------8-------------------------------8---------------|
B|--------8-----------8-------------------8-----------8-------8---|
G|----8-------8-----------8-----------8-------8-----------8-------|
D|9---------------------------9-----------------------------------|
A|----------------------------------------------------------------|
E|----------------------------------------------------------------|

e|----------------8-------------------------------8---------------|
B|--------8-----------8-------------------8-----------8-------8---|
G|----8-------8-----------8-----------8-------------------8-------|
D|10--------------------------10--------------10------------------|
A|----------------------------------------------------------------|
E|----------------------------------------------------------------|

e|----------------8-------------------------------8---------------|
B|--------8-----------8-------------------8-----------8-------8---|
G|----8-------8-----------8-----------8-------8-----------8-------|
D|9---------------------------9-----------------------------------|
A|----------------------------------------------------------------|
E|----------------------------------------------------------------|
 |                                            Life's  your    cup_|

e|----------------8-------------------------------8---------------|
B|--------8-----------8-------------------8-----------8-------8---|
G|----8-------8-----------8-----------8-------------------8-------|
D|10--------------------------10--------------10------------------|
A|----------------------------------------------------------------|
E|----------------------------------------------------------------|
 |________________________________            Life's  your    cup_|

e|----------------8---------------10----------11----------12/14---|
B|--------8-----------8---------------8-----------8---------------|
G|----8-------8-----------8---------------8-----------8-----------|
D|9---------------------------9-----------------------------------|
A|----------------------------------------------------------------|
E|----------------------------------------------------------------|
 |________________________                    Drink   it      up__|

e|----------------8-------------------------------8---------------|
B|--------8-----------8-------------------8-----------8-------8---|
G|----8-------8-----------8-----------8-------------------8-------|
D|10--------------------------10--------------10------------------|
A|----------------------------------------------------------------|
E|----------------------------------------------------------------|
 |________________                                                |

e|----------------8-------------------------------8---------------|
B|--------8-----------8-------------------8-----------8-------8---|
G|----8-------8-----------8-----------8-------8-----------8-------|
D|9---------------------------9-----------------------------------|
A|----------------------------------------------------------------|
E|----------------------------------------------------------------|
 |                                            Life's  your    cup_|

e|----------------------------------------------------------------|
B|----------------------------------------------------------------|
G|5---5---5---x---5---------------5---5---x---x---5---------------|
D|5---5---5---x---5---------------5---5---x---x---5---------------|
A|3---3---3---x---3---------------3---3---x---x---3---------------|
E|----------------------------------------------------------------|
 |________________________________________________________________|

e|----------------------------------------------------------------|
B|----------------------------------------------------------------|
G|4---4---4---4---4---------------4---4---x---x---4---------------|
D|4---4---4---4---4---------------4---4---x---x---4---------------|
A|2---2---2---2---2---------------2---2---x---x---2---------------|
E|----------------------------------------------------------------|
 |___________ Yeah_________                   Life's  your    cup_|

e|----------------------------------------------------------------|
B|----------------------------------------------------------------|
G|5---5---5---x---5---------------5---5---x---x---5---------------|
D|5---5---5---x---5---------------5---5---x---x---5---------------|
A|3---3---3---x---3---------------3---3---x---x---3---------------|
E|----------------------------------------------------------------|
 |_______________________________________________________ Whoa____|

e|----------------------------------------------------------------|
B|----------------------------------------------------------------|
G|4---4---4---4---4---------------4---4---x---x---4---------------|
D|4---4---4---4---4---------------4---4---x---x---4---------------|
A|2---2---2---2---2---------------2---2---x---x---2---------------|
E|----------------------------------------------------------------|
 |________________________________                            The |

e|----------------------------------------------------------------|
B|----------------------------------------------------------------|
G|7-----------8---------------------------------------------------|
D|8-----------8---------------------------------------------------|
A|6-----------6---------------------------------------------------|
E|----------------------------------------------------------------|
 |same        way         you     did the     last    time, you'll|

e|----------------------------------------------------------------|
B|----------------------------------------------------------------|
G|5---------------------------------------------------------------|
D|5---------------------------------------------------------------|
A|3---------------------------------------------------------------|
E|----------------------------------------------------------------|
 |break                      when you fall.   Don't   make    the |

e|----------------------------------------------------------------|
B|----------------------------------------------------------------|
G|----------------------------------------------------------------|
D|3---------------------------------------------------------------|
A|3---------------------------------------------------------------|
E|1---------------------------------------------------------------|
 |same  mistakes               you did all     over        You've |

e|----------------------------------------------------------------|
B|----------------------------------------------------------------|
G|----------------------------------------------------------------|
D|6----6----6-----6-----------------------------------------------|
A|6----6----6-----6-----------------------------------------------|
E|4----4----4-----4-----------------------------------------------|
 |got  to   be  - lieve in  yourself                          The |

e|----------------------------------------------------------------|
B|----------------------------------------------------------------|
G|7-----------8---------------------------------------------------|
D|8-----------8---------------------------------------------------|
A|6-----------6---------------------------------------------------|
E|----------------------------------------------------------------|
 |same        way         you     did the     last    time, you'll|

e|----------------------------------------------------------------|
B|----------------------------------------------------------------|
G|5---------------------------------------------------------------|
D|5---------------------------------------------------------------|
A|3---------------------------------------------------------------|
E|----------------------------------------------------------------|
 |break                      when you fall.   Don't   make    the |

e|----------------------------------------------------------------|
B|----------------------------------------------------------------|
G|----------------------------------------------------------------|
D|3---------------------------------------------------------------|
A|3---------------------------------------------------------------|
E|1---------------------------------------------------------------|
 |same  mistakes               you did all     over        You've |

e|----------------------------------------------------------------|
B|----------------------------------------------------------------|
G|----------------------------------------------------------------|
D|6----6----6-----6-----------------------------------------------|
A|6----6----6-----6-----------------------------------------------|
E|4----4----4-----4-----------------------------------------------|
 |got  to   be  - lieve in  yourself                 this         |

e|----------------8-------------------------------8---------------|
B|--------8-----------8-------------------8-----------8-------8---|
G|----8-------8-----------8-----------8-------------------8-------|
D|10--------------------------10--------------10------------------|
A|----------------------------------------------------------------|
E|----------------------------------------------------------------|
 |time____________________________                                |

e|----------------8-------------------------------8---------------|
B|--------8-----------8-------------------8-----------8-------8---|
G|----8-------8-----------8-----------8-------8-----------8-------|
D|9---------------------------9-----------------------------------|
A|----------------------------------------------------------------|
E|----------------------------------------------------------------|

e|----------------8-------------------------------8---------------|
B|--------8-----------8-------------------8-----------8-------8---|
G|----8-------8-----------8-----------8-------------------8-------|
D|10--------------------------10--------------10------------------|
A|----------------------------------------------------------------|
E|----------------------------------------------------------------|

e|----------------8---------------10----------11----------12/14---|
B|--------8-----------8---------------8-----------8---------------|
G|----8-------8-----------8---------------8-----------8-----------|
D|9---------------------------9-----------------------------------|
A|----------------------------------------------------------------|
E|----------------------------------------------------------------|

e|8---------------------------------------------------------------|
B|8---------------------------------------------------------------|
G|8---------------------------------------------------------------|
D|----------------------------------------------------------------|
A|----------------------------------------------------------------|
E|----------------------------------------------------------------|
Comments